Oops, an error
Loading. Please wait.

Orange Crush Tab

version 2
version 2

Whole song

Interactive

Video

62,480 views 78 this week
6 commentsread comments
1 2 3 4 5
x 19
add to favorites
launch autoscroll
font size
0
reset
how to read this tab
guitar tuner
backing track
0:00
0:00
×
Best way to learn
"Orange Crush"
Autoscroll
slow
fast
+/-
esc
set tempo
stop
Author
Standard tuning (from the bottom: E, A, D, G, B, E) guitar 1: clean   guitar 2: (gain approx. half)

[Intro]
(Guitar 2)
e|0-0-0-0|
B|5-5-5-5|
G|4-4-4-4|
D|-------|
A|-------|
E|-------| x4 really fast

[Verse riff]
(Guitar 1)
e|0---0----0---0---0------------0-------|
B|-0--------0----0--3--0-----3----3-0-3-|
G|------------------------0-2-----------|
D|--------------------------------------|
A|--------------------------------------|
E|--------------------------------------|

[Guitar 2]
e|------------------------------------------|
B|------------------------------------------|
G|------------------------------------------|
D|2---------------------------------x-x-x-x-|
A|2---------------------------------x-x-x-x-|
E|0---------------------------------x-x-x-x-|

[Chorus riff]
(Guitar 1)
e|---0---0---0---0---2---2---2---2-|
B|-5---5---4---4---2---2---4---4---|
G|4-4---4-4-4---4-4-4---4-4-4---4--|
D|---------------------------------|
A|---------------------------------|
E|---------------------------------|

[Guitar 2]
e|---------------------------------------------------------------|
B|---------------------------------------------------------------|
G|--------4-4-4-4-4-4-4-4---------4-4-4-4-4-4-4-4----------------|
D|2-2-2-2-2-2-2-2-4-4-4-4-4-4-4-4-4-4-4-4-4-4-4-4-4-4-4-4-4-4-4-4|
A|2-2-2-2-2-2-2-2-2-2-2-2-2-2-2-2-4-4-4-4-4-4-4-4-2-2-2-2-2-2-2-2|
E|0-0-0-0-0-0-0-0-------2-2-2-2-2-2-2-2--------------------------|

[Bridge] 
(bass only - guitar 1 come in on 5th bar with harmonics solo)

(Guitar 1) 
(all harmonics)
e|-----12---------------------------|
B|12-----------------12--------7----|
G|---------------7--------12------7-|
D|--------------------------7-------|
A|----------------------------------|
E|----------------------------------|  x2

[Interlude]
(Guitar 2)
e|0-0-0-0|
B|5-5-5-5|
G|4-4-4-4|
D|-------|
A|-------|
E|-------| x2 really fast


************************************

| x  Dead note

************************************
Suggest correction
comments
print report bad tab
6 comments total. Showing first comments. show 1 bad comment
0 reply
sonic_777111 396 Jun 07, 2008 07:06 AM

This is a really bad tab. The riff, intro, chorus, etc., they are all totally wrong. The rhythm part is okay though.

0 reply
Skateguitarist4 10 Jun 22, 2008 05:15 PM

unlike this guy i liked this tab good job sounds right to me

guest
You may want to rate the tab now too:
select rating
Wanna post a correction for this tab? Suggest correction