Oops, an error
Loading. Please wait.

Orange Crush Bass Tab

version 3
version 3

Whole song

Interactive

1,651 views 9 this week
1 commentread comment
1 2 3 4 5
please rate
add to favorites
launch autoscroll
font size
0
reset
guitar tuner
Tab Pro tools
  • play this tab
  • loop segment
  • change instrument
  • show fretboard
  • metronome
×
Best way to learn
"Orange Crush"
Autoscroll
slow
fast
+/-
esc
set tempo
stop
Contributor
Intro
G|---------|
D|---------|
A|---5/7---|
E|---------|

G|--------------------------------------------------------------------|
D|--------------------------------------------------------------------|
A|----------------------------------------------4h5---5--5--5----5h7--|
E|----0--0--0---------0--0--0-----2h3--3--3--3-------------------------| X2

Verse A
G|--------------------------------------------------------------------|
D|--------------------------------------------------------------------|
A|----------------------------------------------4h5---5--5--5----5h7--|
E|----0--0--0---------0--0--0-----2h3--3--3--3-------------------------| X3

Verse B
G|--------------------------------------------------------------------|
D|--------------------------------------------------------------------|
A|----------------------------------------------4h5---5--5--5---2-----|
E|----0--0--0---------0--0--0-----2h3--3--3--3-------------------------|

Chorus
G|--------------------------------------------------------------------|
D|--2---2-2---2-1-------------2---4-----------------------------2-----|
A|----------------2-2---2-4-------------------------2---2-2---4---4---|
E|----------------------------------2---2-4---4---4-------------------|

G|--------------------------------------------------------------------|
D|--2---2-2---2-1-------------2---4-----------2-----------------------|
A|----------------2-2---2-4---------------4-------4-2---2-2-----------|
E|----------------------------------2---2-------------------3---2-----|

Verse A X5
Verse B X1
Chorus

Bridge
G|---------------------------------------------------------------7h9--|
D|--------------------------------------------------------------------|
A|----------------------------------------------------5---------------|
E|----0---------------0---------------3-------------------------------| X3
                                                                  P
G|--------------------------------------------------------------------|
D|--------------------------------------------------------------------|
A|----------------------------------------------------5---------------|
E|----0---------------0---------------3-------------------------------|

Into last verse
G|---------|
D|---------|
A|--12\----|
E|---------|

Verse A X2
Verse B X1

Last chorus
G|--------------------------------------------------------------------|
D|--2---2-2---2-1-------------2---4-----------------------------2-----|
A|----------------2-2---2-4-------------------------2---2-2---4---4---|
E|----------------------------------2---2-4---4---4-------------------|

G|--------------------------------------------------------------------|
D|--2---2-2---2-1-------------2---4-----------2-----------------2-----|
A|----------------2-2---2-4---------------4-------4-2---2-2---4---4---|
E|----------------------------------2---2-----------------------------|

G|--------------------------------------------------------------------|
D|--2---2-2---2-1-------------2---4-----------------------------2-----|
A|----------------2-2---2-4-------------------0---2-2---2-2---4---4---|
E|----------------------------------2---2-4---------------------------|

G|--------------------------------------------------------------------|
D|--2---2-2---2-1-------------2---4-----------2-----------------------|
A|----------------2-2---2-4---------------4-------4-2---2-2-----------|
E|----------------------------------2---2-------------------3---2-----|



comments
We did not receive enough feedback on this tab! Please rate:
print report bad tab
1 2 3 4 5
1 comment total.
0 reply
thedudemeister wrote on September 11 2008, 10:14 am

you should put the note values in.

I want to post or [tab]
guest
You may want to rate the tab now too:
select rating
Please do not post tabs as comments. Select "correction" instead!