Oops, an error
Loading. Please wait.

Orange Crush Bass Tab

version 4
version 4

Whole song

Interactive

1,084 views 1 this week
no commentswrite comment
1 2 3 4 5
please rate
add to favorites
launch autoscroll
font size
0
reset
guitar tuner
Tab Pro tools
  • play this tab
  • loop segment
  • change instrument
  • show fretboard
  • metronome
×
Best way to learn
"Orange Crush"
Autoscroll
slow
fast
+/-
esc
set tempo
stop
-----------------------------------------------------------------------------
R.E.M. Orange Crush
-----------------------------------------------------------------------------

These tabs represent my interpretation of the song; they are no way in shape or form 
correct to the real tabs by R.E.M. or to any other authors. I have taken a popular set of 
which I learnt and added a few twists to my liking, enjoy
Email me for any questions jamesgunn123@hotmail.co.uk

INTRO:

G|--------------------------------------------------------------------|
D|--------------------------------------------------------------------|
A|--------------------------------------------------------------------|
E|----0--0--0----0--0--0----------------------------------------------|

G|--------------------------------------------------------------------|
D|--------------------------------------------------------------------|
A|---------------------------------4h5--5--5-5h7----------------------|
E|----2h3--3--3--2h3--3--3----------------------0---0--0-0-0-0--------|

G|--------------------------------------------------------------------|
D|--------------------------------------------------------------------|
A|---------------------------------4h5--5--5-5h7----------------------|
E|----2h3--3--3--2h3--3--3----------------------0---0--0-0-0-0--------|

LYRICS START HERE:
G|--------------------------------------------------------------------|
D|--------------------------------------------------------------------|
A|---------------------------------4h5--5--5-5h7----------------------|
E|----2h3--3--3--2h3--3--3----------------------0---0--0-0-0-0--------|

G|--------------------------------------------------------------------|
D|--------------------------------------------------------------------|
A|---------------------------------4h5--5--5-5h7----------------------|
E|----2h3--3--3--2h3--3--3----------------------0---0--0-0-0-0--------|

G---------------------------------------------------------------------|
D--2-2-2-2-2-2-2-2-1---------------4----------------------------------|
A--------------------2-2-2-2-2-2-2-----------------4--2-2-2-2-2-2-4-2-|
E------------------------------------2-2-2-2-2-2-2--------------------|

CHORUS:
G---------------------------------------------------------------------|
D--2-2-2-2-2-2-2-2-1---------------4----------------------------------|
A--------------------2-2-2-2-2-2-2-----------------4--2-2-2-2-2-2-4-2-|
E------------------------------------2-2-2-2-2-2-2--------------------|

G---------------------------------------------------------------------|
D--2-2-2-2-2-2-2-2-1---------------4----------------------------------|
A--------------------2-2-2-2-2-2-2-----------------4--2-2-2-2-2-2-4-2-|
E------------------------------------2-2-2-2-2-2-2--------------------|

VERSE:
G|--------------------------------------------------------------------|
D|--------------------------------------------------------------------|
A|---------------------------------4h5--5--5-5h7----------------------|
E|----2h3--3--3--2h3--3--3----------------------0---0--0-0-0-0--------|


G|--------------------------------------------------------------------|
D|--------------------------------------------------------------------|
A|---------------------------------4h5--5--5-5h7----------------------|
E|----2h3--3--3--2h3--3--3----------------------0---0--0-0-0-0--------|

G|--------------------------------------------------------------------|
D|--------------------------------------------------------------------|
A|---------------------------------4h5--5--5-5h7----------------------|
E|----2h3--3--3--2h3--3--3----------------------0---0--0-0-0-0--------|

G|--------------------------------------------------------------------|
D|--------------------------------------------------------------------|
A|---------------------------------4h5--5--5-5h7----------------------|
E|----2h3--3--3--2h3--3--3----------------------0---0--0-0-0-0--------|

G|--------------------------------------------------------------------|
D|--------------------------------------------------------------------|
A|---------------------------------4h5--5--5-5h7----------------------|
E|----2h3--3--3--2h3--3--3----------------------0---0--0-0-0-0--------|

CHORUS:
G|--------------------------------------------------------------------|
D|-2-2-2-2-2-2-2-2-1---------------4----------------------------------|
A|-------------------2-2-2-2-2-2-2-----------------4--2-2-2-2-2-2-4-2-|
E|-----------------------------------2-2-2-2-2-2-2--------------------|

G---------------------------------------------------------------------|
D--2-2-2-2-2-2-2-2-1---------------4----------------------------------|
A--------------------2-2-2-2-2-2-2-----------------4--2-2-2-2-2-2-4-2-|
E------------------------------------2-2-2-2-2-2-2--------------------|
For the break I usually play the first note of the verse so it looks like this, although 
requires some improvising, if not play the proven break on another set of tabs, email 
if u want a recording of how it sounds. :-)


BREAK:
G|--------------------------------------------------------------------|
D|--------------------------------------------------------------------|
A|---------------------------------4---5---5---7----------------------|
E|----2---3------2---3------------------------------------------------|

G|--------------------------------------------------------------------|
D|--------------------------------------------------------------------|
A|---------------------------------4---5---5---7----------------------|
E|----2---3------2---3------------------------------------------------|

G|--------------------------------------------------------------------|
D|--------------------------------------------------------------------|
A|--------------------------------------------------------------------|
E|----0--0--0----0--0--0----------------------------------------------|
VERSE:
G|--------------------------------------------------------------------|
D|--------------------------------------------------------------------|
A|---------------------------------4h5--5--5-5h7----------------------|
E|----2h3--3--3--2h3--3--3----------------------0---0--0-0-0-0--------|


G|--------------------------------------------------------------------|
D|--------------------------------------------------------------------|
A|---------------------------------4h5--5--5-5h7----------------------|
E|----2h3--3--3--2h3--3--3----------------------0---0--0-0-0-0--------|

G|--------------------------------------------------------------------|
D|--------------------------------------------------------------------|
A|---------------------------------4h5--5--5-5h7----------------------|
E|----2h3--3--3--2h3--3--3----------------------0---0--0-0-0-0--------|

G|--------------------------------------------------------------------|
D|--------------------------------------------------------------------|
A|---------------------------------4h5--5--5-5h7----------------------|
E|----2h3--3--3--2h3--3--3----------------------0---0--0-0-0-0--------|

G|--------------------------------------------------------------------|
D|--------------------------------------------------------------------|
A|---------------------------------4h5--5--5-5h7----------------------|
E|----2h3--3--3--2h3--3--3----------------------0---0--0-0-0-0--------|

CHORUS:
G---------------------------------------------------------------------|
D--2-2-2-2-2-2-2-2-1---------------4----------------------------------|
A--------------------2-2-2-2-2-2-2-----------------4--2-2-2-2-2-2-4-2-|
E------------------------------------2-2-2-2-2-2-2--------------------|

G---------------------------------------------------------------------|
D--2-2-2-2-2-2-2-2-1---------------4----------------------------------|
A--------------------2-2-2-2-2-2-2-----------------4--2-2-2-2-2-2-4-2-|
E------------------------------------2-2-2-2-2-2-2--------------------|

G---------------------------------------------------------------------|
D--2-2-2-2-2-2-2-2-1---------------4----------------------------------|
A--------------------2-2-2-2-2-2-2-----------------4--2-2-2-2-2-2-4-2-|
E------------------------------------2-2-2-2-2-2-2--------------------|

G---------------------------------------------------------------------|
D--2-2-2-2-2-2-2-2-1---------------4----------------------------------|
A--------------------2-2-2-2-2-2-2-----------------4--2-2-2-2-2-2-4-2-|
E------------------------------------2-2-2-2-2-2-2--------------------|

ENDING:
G|--------------------------------------------------------------------|
D|--------------------------------------------------------------------|
A|--------------------------------------------------------------------|
E|----0--0--0----0--0--0----------------------------------------------|

INTRO
VERSE x5
CHORUS x2
VERSE x5
CHORUS x2
BREAK
VERSE x5
CHORUS x4
ENDING
comments
We did not receive enough feedback on this tab! Please rate:
print report bad tab
1 2 3 4 5
I want to post or [tab]
guest
You may want to rate the tab now too:
select rating
Please do not post tabs as comments. Select "correction" instead!