Oops, an error
Loading. Please wait.

Radio Song Bass Tab

version 1
version 1

Whole song

Interactive

40 views 1 this week
no commentswrite comment
1 2 3 4 5
3 more votes to show rating
add to favorites
launch autoscroll
font size
0
reset
guitar tuner
Autoscroll
slow
fast
+/-
esc
set tempo
stop
Help us to improve Ultimate-Guitar.com Take our survey!
×
Author
Difficulty
novice
Bass Start - 00:10


[Intro]

G|---------------|----------------|----------------|----------------|
D|---6-----------|----------------|---6------------|----------------|
A|-6-------------|--------r-------|-6--------------|--------r-------|
E|---------------|----------------|----------------|----------------|


G|---------------|----------------|----------------|----------------|
D|---6-----------|----------------|---6------------|----------------|
A|-6-------------|--------r-------|-6--------------|--------r-------|
E|---------------|----------------|----------------|----------------|


G|---------------|---------------|
D|---6-----------|---------------|
A|-6-------------|------------9\-|
E|---------------|---------------|


[Verse 1]

G|----------------|----------------|----------------|----------------| (x2)
D|----------------|----------------|----------------|----------------|
A|----------------|----------------|----------------|----------------|
E|-1-1--x1--1-----|--1-1--x1--1----|--1-1--x1--1----|--1-1--x1--1----|


G|----------------|-----------------|----------------|------------------|
D|----------------|-----------------|----------------|--------------1h3-|
A|--1-1--x1--1----|--1-1--x1--1-----|--1-1--x1--1----|--1-1--x1--1------|
E|----------------|-----------------|----------------|------------------|


G|----------------|----------------|----------------|----------------| 
D|----------------|----------------|----------------|----------------|
A|----------------|----------------|----------------|----------------|
E|-1-1--x1--1-----|--1-1--x1--1----|--1-1--x1--1----|--1-1--x1--1----|


[Chorus]

G|--1---1------|-1---1--3-1-3-|-1---1------|-1---1--3-1-3-|
D|-----------1-|--------------|----------1-|--------------|
A|-------------|--------------|------------|--------------|
E|-------------|--------------|------------|--------------|


G|-1---1------|-1---1--3-1-3-|-----2/3--------|-----------------|
D|----------1-|--------------|----------------|-1-1-1-1-1-----1-|
A|------------|--------------|-1---------8\-1-|-------------3---|
E|------------|--------------|----------------|-----------------|


[Verse 2]

G|----------------|----------------|----------------|----------------| (x2)
D|----------------|----------------|----------------|----------------|
A|----------------|----------------|----------------|----------------|
E|-1-1--x1--1-----|--1-1--x1--1----|--1-1--x1--1----|--1-1--x1--1----|

                                                                    P
G|----------------|-----------------|----------------|--------------8h10-|
D|----------------|-----------------|----------------|-------------------|
A|--1-1--x1--1----|--1-1--x1--1-----|--1-1--x1--1----|--1-1--x1--1-------|
E|----------------|-----------------|----------------|-------------------|


G|----------------|----------------|----------------|----------------| 
D|----------------|----------------|----------------|----------------|
A|----------------|----------------|----------------|----------------|
E|-1-1--x1--1-----|--1-1--x1--1----|--1-1--x1--1----|--1-1--x1--1----|


[Chorus]

G|--1---1------|-1---1--3-1-3-|-1---1------|-1---1--3-1-3-|
D|-----------1-|--------------|----------1-|--------------|
A|-------------|--------------|------------|--------------|
E|-------------|--------------|------------|--------------|


G|-1---1------|-1---1--3-1-3-|-----2/3--------|------------|
D|----------1-|--------------|----------------|-1-1-1-1-1--|
A|------------|--------------|-1---------8\-1-|------------|
E|------------|--------------|----------------|------------|


[Interlude]

G|-----------------|----------------|----------------|----------------| (x2)
D|-----------------|----------------|----------------|----------------|
A|-----------------|----------------|----------------|----------------|
E|--1-1--x1--1-----|--1-1--x1--1----|--1-1--x1--1----|--1-1--x1--1----|


[Verse 3]
                                                                    P
G|----------------|-----------------|----------------|--------------8h10-|
D|----------------|-----------------|----------------|-------------------|
A|--1-1--x1--1----|--1-1--x1--1-----|--1-1--x1--1----|--1-1--x1--1-------|
E|----------------|-----------------|----------------|-------------------|


G|----------------|----------------|----------------|----------------| 
D|----------------|----------------|----------------|----------------|
A|----------------|----------------|----------------|----------------|
E|-1-1--x1--1-----|--1-1--x1--1----|--1-1--x1--1----|--1-1--x1--1----|


[Chorus]

G|--1---1------|-1---1--3-1-3-|-1---1------|-1---1--3-1-3-| (x3)
D|-----------1-|--------------|----------1-|--------------|
A|-------------|--------------|------------|--------------|
E|-------------|--------------|------------|--------------|


G|-----2/3--------|------------|---------------|
D|----------------|-1-1-1-1-1--|---------------|
A|-1---------8\-1-|------------|------------8\-|
E|----------------|------------|---------------|


[Outro]

G|----------------|----------------|----------------|------------------| 
D|----------------|----------------|----------------|--------------1h3-|
A|----------------|----------------|----------------|------------------|
E|-1-1--x1--1-----|--1-1--x1--1----|--1-1--x1--1----|--1-1--x1--1------|

                                                                   P
G|----------------|----------------|----------------|--------------8h10-| 
D|----------------|----------------|----------------|-------------------|
A|----------------|----------------|----------------|-------------------|
E|-1-1--x1--1-----|--1-1--x1--1----|--1-1--x1--1----|--1-1--x1--1-------|

                                                                    P
G|----------------|------------------|---------------|--------------8h10-| 
D|----------------|--------------1h3-|---------------|-------------------|
A|----------------|------------------|---------------|-------------------|
E|-1-1--x1--1-----|--1-1--x1--1------|-1-1--x1--1----|--1-1--x1--1-------|

                                 P
G|----------------|--------------8h10-|---------------|--------------| 
D|----------------|-------------------|---------------|--------------|
A|----------------|-------------------|---------------|--------------|
E|-1-1--x1--1-----|--1-1--x1--1-------|-1-1--x1--1----|--1-1--x1--1--|

                                  P                                   P
G|-----------------|--------------8h10-|---------------|--------------8h10-| 
D|-----------------|-------------------|---------------|-------------------|
A|-----------------|-------------------|---------------|-------------------|
E|--1-1--x1--1-----|--1-1--x1--1-------|-1-1--x1--1----|--1-1--x1--1-------|

                                 P                                   P
G|----------------|--------------8h10-|---------------|--------------8h10-| 
D|----------------|-------------------|---------------|-------------------|
A|----------------|-------------------|---------------|-------------------|
E|-1-1--x1--1-----|--1-1--x1--1-------|-1-1--x1--1----|--1-1--x1--1-------|



*************************

| / : slide up
| \ : slide down
| h : hammer-on
| x : dead note
| r : rest
| P : pluck

*************************

in regular sequence!
Suggest correction
Give kudos to tab author, rate the tab!
1 2 3 4 5
comments
print report bad tab
guest
You may want to rate the tab now too:
select rating
Wanna post a correction for this tab? Suggest correction