Oops, an error
Loading. Please wait.

Reckoning Tab

version 2
version 2

Album

1,989 views 1 this week
no commentswrite comment
1 2 3 4 5
please rate
add to favorites
launch autoscroll
font size
0
reset
how to read this tab
guitar tuner
Tab Pro tools
  • play this tab
  • loop segment
  • change instrument
  • show fretboard
  • metronome
×
Best way to learn
"Reckoning"
Autoscroll
slow
fast
+/-
esc
set tempo
stop
Contributor
RECKONING

------------------------------------------------------------------------
			     Harborcoat - REM
------------------------------------------------------------------------
Tabbed by: Barnaby Wilde
Email:

Intro/ Chorus:
E-B-A
e|--0--0-2-0-0-0--------------|
B|--0--0-0-0-2-0--------------|
G|--0--1-4-4-2-2--------------|
D|--0--2-4-4-2-2--------------|
A|--0--2-0-0-0-0--------------|
E|--0--0-0-0-0-0--------------|

Verse:
e|--4-4------5-5-5---5>7-|
B|--5-5------5-5-5---5>7-|
G|--6-6-2-1--6-6-6---6>8-|
D|--6-6----2-7-7-7---7>9-|
A|--0-0------------------|
E|--0-0------------------|

Bridge to Chorus:
e|-0-0>0-0-0------5-5---5-5---5-5----|
B|-7-7>9-9-9---------5-5---5-5---5-5-|
G|-6-6>8-8-8---x3--------------------|
D|-7-7>9-9-9-------------------------|
A|-----------------------------------|
E|-----------------------------------|

Bridge 2:
e|-5--7-7--2-------------|
B|-5--7-9--0-------------|
G|-5--7-7--4-------------|
D|-5--7-7--4-------------|
A|-5--7-7----------------|
E|-5--7-7----------------|

Second Guitar on final Chorus:

e|---0--2-------0-----0-----0----|
B|--0--0--2-0-2h--0-2h--0-2h-----|
G|-4--4--------------------------|
D|-------------------------------|
A|-------------------------------|
E|-------------------------------|


------------------------------------------------------------------------
			     7 Chinese Bros. - REM
------------------------------------------------------------------------
Tabbed by: Barnaby Wilde
Email:

Verse:
e|--------------------------------------------------------------|
B|--------------------------------------------------------------|
G|-11-11-11-12-14-16-16-16-16-16-14-11-11-11-11-12-11-9-7-7-7-7-|
D|-0-0-0-0-0-0-0-0-0-0-0-0-0-0-0-0-0-0-0-0-0-0-0-0-0-0-0-0-0-0--|
A|--------------------------------------------------------------|
E|--------------------------------------------------------------|

Before vocal hit:
e|--10-10-10--|
B|------------|
G|---7--7--7--|
D|------------|
A|------------|
E|------------|

Riff and Bridge to Chorus:         Or:
e|---------------------------------2-3-2-0-------|
B|----------------------------------------3------|
G|-11-12-11-9-7----------------------------------|
D|-----------------------------------------------|
A|-----------------------------------------------|
E|-----------------------------------------------|


Chorus:
e|--0--0--0-0--0--0----0--0-2-3-2-0--|
B|---3--3----3--3---3---3----------3-|
G|-5--5--5----5--5--2-2--2-----------|
D|-----------------------------------|
A|-----------------------------------|
E|-----------------------------------|

Bridge:
e|-0--0-0---------------0--0-0-2-2-2-0-0-0-2-0-0-0-0-0-0-0-0-0-|
B|-0--0-0---------------0--0-0-3-3-3-3-3-3-3-3-2-2-2-0-0-0-2-0-|
G|-4--4-4-----0-----0---4--4-4---------------------------------|
D|-4--4-4----4-4---4-4--4--4-4---------------------------------|
A|-2--2-2-2-2---2-2-----2--2-2---------------------------------|
E|-------------------------------------------------------------|



------------------------------------------------------------------------
			     So. Central Rain - REM
------------------------------------------------------------------------
Tabbed by: Barnaby Wilde
Email:

Intro/ Chorus:
e|-------------0----------------0---0---0--|
B|----------3---3-0----------3---3---3---0-|
G|---------2-2---2----------2-2---2---2----|
D|----2-3-0---0--------2-3-0---0-----------|
A|-3-3--------------3-3--------------------|
E|-----------------------------------------|

Verse:
C------------------------------------------|Em-Gm-F-C-Cm-Bb-C
e|-0--0--3--1--0--3-1-0--------------------|
B|-1--0--3--1--1--4-2-1--------------------|
G|-0--0--3--2--0--5-2-0--------------------|
D|-2--2--5--3--2--5-2-2--------------------|
A|-3--2--5--3--3--3-1-3--------------------|
E|-0--0--3--1--0--3-1-0--------------------|

Basic Bridge to all verses:
C
e|-0---|
B|-1---|
G|-0---|
D|-2---|
A|-3---|
E|-0---|


Second Bridge to Verse:
e|-0---0-0-3-0--0---0-0-3-0--0---0-0-3-0-3-------|
B|-1----3-------1----3-------1----3------3-------|
G|-2------------2------------2-----------0-------|
D|-2------------2------------2-----------0-------|
A|-0------------0------------0-----------2-------|
E|-0------------0------------0-----------3-------|

End (Repeat under howling:)
e|-0---0-0-3-0--0-----|
B|-1----3-------1-----|
G|-2------------2-----|
D|-2------------2-----|
A|-0------------0-----|
E|-0------------0-----|



------------------------------------------------------------------------
			     Pretty Persuasion - REM
------------------------------------------------------------------------
Tabbed by: Barnaby Wilde
Email:

Intro/Bridge (x2)
e|------------------0---0---0--0----0---0--0---0------------|
B|-5-4-2-0-2-4-2-0---0---0------0-----------0---0----3-2>5--|
G|----------------2---2---2---4---2---4---2---4--4----------|
D|----------------------------------------------------------|
A|----------------------------------------------------------|
E|----------------------------------------------------------|

Verse:
e|-3-2-3-2--0-0-0-0-0-0-0-------------------|
B|-3-3-3-3--0-0-0-2-0-2-0-------------------|
G|-2-2-2-2--2-2-2-2-2-2-2-------------------|
D|----------2-2-2-2-2-2-2-------------------|
A|------------------------------------------|
E|------------------------------------------|

Bridge to Chorus: (x2)
Guitar 1, emphasize low end like a power chord
e|-2--2-0-2--0-2-----------------------|
B|-2--4-0-2--0-2-----------------------|
G|-3--4-2-3--1-3-----------------------|
D|-4--4-2-4--2-4-----------------------|
A|-4--2-0-4--2-4-----------------------|
E|-2--2-0-2--0-2-----------------------|

Guitar 2:
Let F# ring
e|-2------2--0--0--2-----------------|
B|-0------0------0-0-----------------|
G|-3------3---1----3-----------------|
D|-4------4--------4-----------------|
A|-----------------------------------|
E|-----------------------------------|

Chorus:
Pick D and E, strum F#
e|-2--0-2---------------------------|
B|-3--0-2---------------------------|
G|-2--1-3---------------------------|
D|----2-4---------------------------|
A|----2-4---------------------------|
E|----0-2---------------------------|

Middle Bridge:
e|-0-2--2--0-0-2-3-2---------------------|
B|-0-2--2--0-0-3-3-3---------------------|
G|-1-3--3--2-1-2-2-2---------------------|
D|-2-4--4--2-2---------------------------|
A|-2-2--2--0-2---------------------------|
E|-0-2--2--0-0---------------------------|

e|--2--0-0-2-0-2-0-2-0-2-0------|
B|--2--0-0-3-0-3-0-3-0-3-0------|
G|--3--2-1-2-2-2-2-2-2-2-2------|
D|--4--2-2---2---2---2---2------|
A|--2--0-2---0---0---0---0------|
E|--2--0-0---0---0---0---0------|

------------------------------------------------------------------------
			Time After Time (annElise) - REM
------------------------------------------------------------------------
Tabbed by: Barnaby Wilde
Email:


Capo 1

Verse
Guitar 1:
f |-0-0-0-3-3-3-3>5-0----------|
C |-3-3-3-3-3-3----------------|
G#|-2-2-2-2-2-2----------------|
D#|----------------------------|
A#|----------------------------|
F |----------------------------|

Verse
Guitar 2 (after 1st verse)
Also ringing chord at the top of the song and throughout verses:
f |-------------------------------|
C |-3-3-3-3-3-3-3-3-3-3-3---------|
G#|-7-7-7-7-7-7-7-7-7-7-7---------|
D#|-------------------------------|
A#|-------------------------------|
F |-------------------------------|

Chorus:
f |----0-0----0-0--0------------|
C |--0--0----0-3-3-3-VERSE RIFF-|
G#|---0-----2------2------------|
D#|-2------0--------------------|
A#|-----------------------------|
F |-----------------------------|

Lead:
f |-2-2-3-2-3-2-0-0-2-0--5-5-3-7-5-3-3-------------|
C |-3-3-3-3-3-3--3-----3-3-3-3-3-3-3-3-------------|
G#|------------------------------------------------|
D#|------------------------------------------------|
A#|------------------------------------------------|
F |------------------------------------------------|

f |-5-5-3-2-3-2-0-0-2-0--5-5-3-7-5----------------------|
C |-3-3-3-3-3-3--3-----3-3-3-3-3-3----------------------|
G#|-----------------------------------------------------|
D#|-----------------------------------------------------|
A#|-----------------------------------------------------|
F |-----------------------------------------------------|

------------------------------------------------------------------------
			Second Guessing - REM
------------------------------------------------------------------------
Tabbed by: Barnaby Wilde
Email:

Intro and Verse Transition
e|-0-0-0-0-0-0------|
B|-0-0-0-0-0-0------|
G|-9-9-9-9-9-9------|
D|-9-9-9-9-9-9------|
A|-7-7-7-7-7-7------|
E|-0-0-0-9-9-9------|

Verse
e|-0-0-0-0-0-0-----0---|
B|-0-0-0-0-0-0-----0---|
G|-9-9-9-9-9-9-----8---|
D|-9-9-9-9-9-9-x3--9---|
A|-7-7-7-7-7-7-----9---|
E|-0-0-0-9-9-9-----7---|

Bridge to chorus
e|-0-0-0----------------------------|
B|-0-0-0----------------------------|
G|-6-4-2----------------------------|
D|-7-5-4----------------------------|
A|-7-5-0----------------------------|
E|-5-3-0----------------------------|

Chorus
e|-0-3-----0------|
B|-3-3-----0------|
G|-2-4-x3--2------|
D|-0-5-----4------|
A|---5-----0------|
E|---3-----0------|





------------------------------------------------------------------------
			Letter Never Sent - REM
------------------------------------------------------------------------
Tabbed by: Barnaby Wilde
Email:

Tune down a 1/2 step
Intro/ Verse
d#|-------------------------------|
A#|-------------------------3-----|
F#|-2-2-2-2-0-0-0-0-0-0-0-----0---|
C#|-0-0-0-0-4-4-4-4-2-2-2--2------|
G#|----------------------3--------|
D#|-------------------------------|

Bridge to Chorus
d#|-2-2-2-2-3-3-3-3---------------|
A#|-3-3-3-3-3-3-3-3---------------|
F#|-2-2-2-2-0-0-0-0---------------|
C#|-0-0-0-0-0-0-0-0---------------|
G#|---------2-2-2-2---------------|
D#|---------3-3-3-3---------------|

Chorus
d#|-0---------3---------------------|
A#|-2---------3---------------------|
F#|-2--2-0----0---------------------|
C#|-2-----2-0-0---------------------|
G#|-0---------2---------------------|
D#|-0---------3---------------------|

Middle Bridge
d#|-0--0----2-2-2-3-2--0--0--3-----|
A#|-7--2--3-3-3-3-3-3--7--2--3-----|
F#|-9--2--2-2-2-2-2-2--9--2--0-----|
C#|-9--2---------------9--2--0-----|
G#|----0---------------------2-----|
D#|--------------------------3-----|

Last Verse:
d#|--------------------------------------|
A#|-3-------------------3----------------|
F#|-2--------------0----2----------------|
C#|-0-0-0-2-4-2-0-2-2-0-0-0-0-2-4-2------|
G#|--------------------------------------|
D#|--------------------------------------|

End on A.
-BW



------------------------------------------------------------------------
			Camera - REM
------------------------------------------------------------------------
Tabbed by: Barnaby Wilde
Email:

Bass Intro
e|-------------------------------|
B|-------------------------------|
G|-------------------------------|
D|-------------------------------|
A|-5-5-7-8-5-7-7-------5---------|
E|--------------5-5-5-5----------|

Verse
e|------0------------0---0---0---|
B|-----3-3---3-----3--3---3---3--|
G|--2-2---2-0-0---0----0---0-----|
D|--0------3---0-2---------------|
A|-------------------------------|
E|-------------------------------|

Bridge to Chorus and Chorus
e|--0--0--------------0--3-3-3--3-3--2-2-2-3-5-3-2-0-0--------|
B|-3-3-3-3-3-2-2-2-2-3-3-3-3-3--3-3--3-3-3-3-3-3-3-3-1--------|
G|-----2-2-2-2-2-2-2-2---0-0-0--0-0--2-2-2-2-2-2-2-2-0--------|
D|-----2-2-2-2-2-2-2-2---0-0-0--0-0--0-0-0-0-0-0-0-0-2--------|
A|-----------------------2-0-2h-0-2h-----------------3--------|
E|-----------------------3-0-3h-0-3h-----------------0--------|


e|-0-0-0--0------2-2-2-3-5-3-2-0-3-3-3--3-3--2-2-2-3-5-3-2-0--|
B|-1-1-1-3-3-1-3-3-3-3-3-3-3-3-3-3-3-3--3-3--3-3-3-3-3-3-3-3--|
G|-0-0-0---------2-2-2-2-2-2-2-2-0-0-0--0-0--2-2-2-2-2-2-2-2--|
D|-2-2-2---------0-0-0-0-0-0-0-0-0-0-0--0-0--0-0-0-0-0-0-0-0--|
A|-3-3-3-------------------------2-0-2h-0-2h------------------|
E|-0-0-0-------------------------3-0-3h-0-3h------------------|

e|-0-0-0--0---------------0--------|
B|-1-1-1-3-3-1-3-2-2-2-2-3-3-2-3-0-|
G|-0-0-0---------2-2-2-2-2---------|
D|-2-2-2---------2-2-2-2-2---------|
A|-3-3-3---------------------------|
E|-0-0-0---------------------------|

Lead/ Intro to Last Verse
e|----------------------------------------|
B|-------10>15-13-10-10-12h-10--10-10-10--|
G|---7>10---------------------12----------|
D|--0-------------------------------------|
A|----------------------------------------|
E|----------------------------------------|

Interlude
e|-------------------------------|
B|-------------2-----------------|
G|--3-3-3-3-1-3-3-3-3-3-3-1-1----|
D|-------------------------3-----|
A|-------------------------------|
E|-------------------------------|

e|-------------------------------|
B|-------------2----------2>4-2--|
G|--3-3-3-3-1-3-3-3-3-3-3------3-|
D|-------------------------------|
A|-------------------------------|
E|-------------------------------|

e|------------------------------------|
B|------------------------------------|
G|-1-1-3-3-3-1-3--1-------1-1--3-3-3--|
D|---------------3-1-1-1-3-3----------|
A|------------------------------------|
E|------------------------------------|


------------------------------------------------------------------------
		(DON'T GO BACK TO) ROCKVILLE - REM
------------------------------------------------------------------------
Tabbed by: Barnaby Wilde
Email:

Intro: E

Verse:
E-A
e|-0-0-0-0-0---0-0-0-0-0---------------------|
B|-0-0-0-0-0---2-3-2-3-2---------------------|
G|-1-2-1-2-1---2-2-2-2-2---------------------|
D|-2-2-2-2-2---2-2-2-2-2---------------------|
A|-2-2-2-2-2---0-0-0-0-0---------------------|
E|-0-0-0-0-0---0-0-0-0-0---------------------|

Verse (Second Guitar) Starts during second verse
e|--7-5-----7-5-----5-7-9-7-5-7-9-7-5---|
B|-5-9-9-7-5-9-9-7-5-5-5-5-5-5-5-5-5----|
G|--------------------------------------|
D|--------------------------------------|
A|--------------------------------------|
E|--------------------------------------|

Bridge to Chorus
B-A-G#-C#m-Bm-A
e|-2---5-4-4---2-0-0-0-0-0-----------------|
B|-4---5-4-5---3-2-3-2-3-2-----------------|
G|-4---6-4-6---4-2-2-2-2-2-----------------|
D|-4---7-6-6---4-2-2-2-2-2-----------------|
A|-2---7-6-4---2-0-0-0-0-0-----------------|
E|-2---5-4-4---2-0-0-0-0-0-----------------|

Bridge to Chorus (Second Guitar)
Pick:
e|-7---5-4-4---2-0--0---0--------------|
B|-7---5-4-5---3-2-3--2--2-------------|
G|-8---6-4-6---4-2-----0---------------|
D|-9---7-6-6---4-2---------------------|
A|-9---7-6-4---2-0---------------------|
E|-7---5-4-4---2-0---------------------|

Chorus
E-F#m-B x3 -A
e|-0-2-2-2-2-----0-----------------------|
B|-0-2-4-5-4-----2--3-2-0-0-2-3-2-0---0--|
G|-1-2-4-4-4-x3--2-------2---------2-0---|
D|-2-4-4-4-4-----2-----------------------|
A|-2-4-2-2-2-----0-----------------------|
E|-0-2-2-2-2-----0-----------------------|

Middle Bridge
E---------------------------------------------|A-B-A-B x3 F#m-C#m-F#m-C#m-A-B
e|-0---0-2-0-2-----2-4-2-4---0---2------------|
B|-0---2-4-2-4-----2-5-2-5---2---4------------|
G|-1---2-4-2-4-x2--2-6-2-6---2---4------------|
D|-2---2-4-2-4-----4-6-4-6---2---4------------|
A|-2---0-2-0-2-----4-4-4-4---0---2------------|
E|-0---0-2-0-2-----2-4-2-4---0---2------------|

Ending:
e|-0-0-0----------0-0------|
B|------1>2-0-------0------|
G|-----------0-1h---1------|
D|------------------2------|
A|------------------2------|
E|------------------0------|

Bass Ending:
e|----------------------|
B|----------------------|
G|----------------------|
D|-----2-4h>6-----------|
A|-2-4h-----------------|
E|----------------------|


------------------------------------------------------------------------
		Little America - REM
------------------------------------------------------------------------
Tabbed by: Barnaby Wilde
Email:

Intro/ Verse:
e|--0-0-0-0-0-0-0-0--0-0-0-0----------------|
B|--7-7-8-7-5-5-5-7h-7-7-7-5----------------|
G|--7-7-7-7-7-7-7-7--7-7-7-7-7-5>7-7-7-9-7--|
D|--0-0-0-0-0-0-0-0--0-0-0---0-0-0-0-0-0-0--|
A|------------------------------------------|
E|------------------------------------------|

e|--0-0-0-0-0-0-0-0--0-0-0-0----------------10--|
B|--7-7-8-7-5-5-5-7h-7-7-7-5---------------8--8-|
G|--7-7-7-7-7-7-7-7--7-7-7-7-7-5>7-7-7-9-7------|
D|--0-0-0-0-0-0-0-0--0-0-0---0-0-0-0-0-0-0------|
A|----------------------------------------------|
E|----------------------------------------------|

Chorus:
e|--0---0---0---0->-0------------------|
B|--0---0---0---0->-0------------------|
G|--4---4---4---4->-9------------------|
D|--5---4---5---4->-9------------------|
A|--5---2---5---2->-7------------------|
E|--3---0---3---0->-0------------------|

Bridge to Verse:
e|----------------------------------------------|
B|----------------------------------------------|
G|--7-9h-9-9-7-4-7-9-7-7-7-7-9h-9-9-7-12-9-7----|
D|--0-0--0-0-0-0-0-0-0-0-0-0-0--0-0-0--0-0-0----|
A|----------------------------------------------|
E|----------------------------------------------|

End on:
e|-0-------|
B|-7-------|
G|-7-------|
D|-0-------|
A|---------|
E|---------|
comments
We did not receive enough feedback on this tab! Please rate:
print report bad tab
1 2 3 4 5
I want to post or [tab]
guest
You may want to rate the tab now too:
select rating
Please do not post tabs as comments. Select "correction" instead!