Oops, an error
Loading. Please wait.

Shaking Through Tab

version 2
version 2

Whole song

Interactive

1,895 views 6 this week
no commentswrite comment
1 2 3 4 5
please rate
add to favorites
launch autoscroll
font size
0
reset
how to read this tab
guitar tuner
Tab Pro tools
  • play this tab
  • loop segment
  • change instrument
  • show fretboard
  • metronome
×
Best way to learn
"Shaking Through"
Autoscroll
slow
fast
+/-
esc
set tempo
stop
Contributor
------------------------------------------------------------------------
                             Shaking Through - REM
------------------------------------------------------------------------
Tabbed by: Barnaby Wilde
Email:

Pick everything except for this intro/bridge ... 

Intro and last Bridge to Chorus:
e|----------------|
B|-10-8-7-5-------|
G|-11-9-7-5-------|
D|--0-0-0-0-------|
A|----------------|
E|----------------|

Verses: D-Bm:
e|-2-0-2-0-3-2-0-2-0--2-0-2-0-2-0-2-0--|
B|-3-------------------------3-------0-|
G|-2-----------------4-----------------|
D|-------------------------------------|
A|-------------------------------------|
E|-------------------------------------|

Bridge 1: Em-A
e|-0-0-0-0-0------------------|
B|-0-2-3-0-2-2-0-2-0-3-2-0-2--|
G|-0-2-2-0-2----------------2-|
D|-2-2-2-2-2------------------|
A|-2-0-0-2-0------------------|
E|-0-0-0-0-0------------------|

Chorus: D-A-G
Hit the A chord going back to the D
e|-2-0-3-----|
B|-3-2-3-----|
G|-2-2-4-----|
D|-0-2-5-----|
A|---0-0-----|
E|---0-0-----|

Bridge 2: A-D-G-A-D-Em-A
e|-0-2-3-0-2-0-0------------------|
B|-2-3-3-2-3-0-2-2-0-2-0-3-2-0-2--|
G|-2-2-4-2-2-0-2----------------2-|
D|-2-0-5-2-0-2-2------------------|
A|-0---0-0---2-0------------------|
E|-0---0-0---0-0------------------|

Last Chorus: E-B-A
e|-7-7-5------|
B|-9-7-5------|
G|-9-8-6------|
D|------------|
A|------------|
E|------------|
End on B.

Interlude after song:
e|-0-5-10-7-5---|
B|-5-5--9-6-5---|
G|-4-4--8-7-4---|
D|-0-0--0-0-0---|
A|--------------|
E|--------------|
comments
We did not receive enough feedback on this tab! Please rate:
print report bad tab
1 2 3 4 5
I want to post or [tab]
guest
You may want to rate the tab now too:
select rating
Please do not post tabs as comments. Select "correction" instead!