Oops, an error
Loading. Please wait.

She Just Wants To Be Tab

version 1
version 1

Whole song

Interactive

7,591 views 1 this week
no commentswrite comment
1 2 3 4 5
please rate
add to favorites
launch autoscroll
font size
0
reset
how to read this tab
guitar tuner
Tab Pro tools
  • play this tab
  • loop segment
  • change instrument
  • show fretboard
  • metronome
×
Best way to learn
"She Just Wants To Be"
Autoscroll
slow
fast
+/-
esc
set tempo
stop
Contributor

R.E.M.
SHE JUST WANTS TO BE - Reveal

Name:Matthew Bailey!!!!!!!!!!!!!!!!!!!!!!!!!

Intro: 2X

(acoustic)
e---3---0--|-------|----|--
b--(1)-(1)-|-1-----|----|--
g--(0)-----|(0)----|----|--
d----------|-------|----|--
a----------|-------|----|--
e----------|-------|----|--

e---3---0--|--------|-0---|--
b--(1)-(1)-|-1---3--|-0---|--
g--(0)-----|(0)-(0)-|-0---|--
d----------|--------|-2---|--
a----------|--------|-----|--
e----------|--------|-----|--


VERSE: "It's not that..."


Chords:
	Am	C	Am	C	Am	C	C	Em

Tab:
Play freely!

	Am	C/F
e---------0-|-------(1)¢0-|--
b---------1-|--------1-¢0-|--
g-----2-----|----0^2------|--	3X 
d-----2-----|-0^3---------|--
a-----0-----|-------------|--
e-----------|-------------|--

	C		Em
e-----------|-------------|
b-------1---|------0------|
g---------0-|--------0----|	
d-----2-----|----2--------|
a---3-------|-------------|
e-----------|--0----------|


PRE-CHORUS: 

Chords:
	F	D	F	D

Tab:

Clean guitar. 
	F			D
e------------|------------|------------|------------|
b------------|------------|------------|------------|
g----------2-|------------|----------7-|------------|	2X
d-------3----|----3-----3-|----7-------|----7-----7-|
a----3-------|-------3----|-5-----5----|-------5----|
e-1----------|------------|------------|------------|


CHORUS: "She just wants..."

Chords: 
	Am	C   	Em	G

	Am	C	G	G	2X 

Tab: 

Play this patterns over chords. Pick individual notes. 

   Am	    C	   Em	   G    (*2nd)G
e---12---|--12--|--12--|--15--|--------
b---13---|--13--|--12--|--12--|--(12)--
g---14---|--12--|--12--|--12--|--(12)--
d--------|------|------|------|--(12)--
a--------|------|------|------|--------
e--------|------|------|------|--------


Fill 1: "...she just wants to be."
	G
e------------|------------|------------|
b------------|------------|------------|
g------------|------------|------------|
d------------|------------|------------|
a----------2^|3----3^2----|0-----------|
e------------|----------3-|------------|

^ = pull off/hammer on


Solo 1: 
	Am	C		Am	C		Am		C
e------------|------------|----------7-|8-7---------|------------|------------|
b-------/10--|--8-----10--|------10----|----10------|--------10--|--8-----10--|
g------------|------------|--9---------|------------|------------|------------|
d------------|------------|------------|------------|------------|------------|
a------------|------------|------------|------------|------------|------------|
e------------|------------|------------|------------|------------|------------|

	G	Em		Am
e------------|------------|------------|
b-12'---13'--|--15'---17'-|-20-/-------| * ' = short notes
g------------|------------|------------|
d------------|------------|------------|
a------------|------------|------------|
e------------|------------|------------|

	Am	C		Am	C		Am		C
e------------|------------|----------7-|8-7---------|------------|------------|
b-------/10--|--8-----10--|------10----|----10------|--------10--|--8-----10--|
g------------|------------|--9---------|------------|------------|------------|
d------------|------------|------------|------------|------------|------------|
a------------|------------|------------|------------|------------|------------|
e------------|------------|------------|------------|------------|------------|

	G	Em		Am
e------------|------------|------------|
b-12'---13'--|-12-12/10-10|--/-8--/10--|
g------------|------------|------------|
d------------|------------|------------|
a------------|------------|------------|
e------------|------------|------------|


Fill 2: "Now is greater..."

	F	Am
e-12------|-------------|
b----12---|-------------|
g-------12|-------------|
d---------|14-----------|
a---------|-------------|
e---------|-------------|
 

Fill 3: "...and light on the ground."

(version1)

	F	Am
e----17------|-(17)-------|
b------17^15-|------------|
g------------|--17--------|
d------------|------------|
a------------|------------|
e------------|------------|

Fill 3:
(version2)

	F	Am
e----17------|(17)--------|
b------17----|(17)--------|
g---------19^|^17---------|
d------------|------------|
a------------|------------|
e------------|------------|


Solo 2: 

Use overdrive

e--------------------------------------------12'--------------12----15---
b-------(12)-----------12-13''--13-13-12''--------13-12^13^12---12-------
g--------------------12--------------------------------------------------
d--14---------14--14-----------------------------------------------------
a------------------------------------------------------------------------
e------------------------------------------------------------------------

'' = vibrato
'  = short notes

e-----12------15------12----12-------------------------12'---------------
b-13-----13--------13----13----12--12-13''--13-13-12''------13-12^13^12--
g------------------------------------------------------------------------
d------------------------------------------------------------------------
a------------------------------------------------------------------------
e------------------------------------------------------------------------

e--12-----15-------12------15-----15----15-------12--15------------------
b-----12-------13-----13-------13----13------13---------13-12-12-12-12-13
g------------------------------------------------------------------------
d------------------------------------------------------------------------
a------------------------------------------------------------------------
e------------------------------------------------------------------------

e-12----12-----------------12----12-----------------12----12-------------
b----13-----12-12-12-12-13----13-----12-12-12-12-13----13----12-12-12-12-
g------------------------------------------------------------------------
d------------------------------------------------------------------------
a------------------------------------------------------------------------
e------------------------------------------------------------------------

e----12-----12-----/
b-13----13------12-/
g-------------------
d-------------------
a-------------------
e-------------------

Outro: 

(acoustic)
e---3---0--|-------|----|--
b--(1)-(1)-|-1-----|----|--
g--(0)-----|(0)----|----|--
d----------|-------|----|--
a----------|-------|----|--
e----------|-------|----|--

			2X
e---3---0--|--------|-0---|-----------------------------------------------
b--(1)-(1)-|-1---3--|-0---|---------------1-0-----------------------------
g--(0)-----|(0)-(0)-|-0--:|-------------2-----2---2-----------------------
d----------|--------|-2---|-----------2---------2-------------------------
a----------|--------|-----|---------0---------------0---------------------
e----------|--------|-----|-----3-----------------------------------------

comments
We did not receive enough feedback on this tab! Please rate:
print report bad tab
1 2 3 4 5
I want to post or [tab]
guest
You may want to rate the tab now too:
select rating
Please do not post tabs as comments. Select "correction" instead!