Oops, an error
Loading. Please wait.

Shiny Happy People Bass Tab

version 1
version 1

Whole song

Interactive

7,371 views 21 this week
no commentswrite comment
1 2 3 4 5
excellent!
x 5
add to favorites
launch autoscroll
font size
0
reset
guitar tuner
Tab Pro tools
  • play this tab
  • loop segment
  • change instrument
  • show fretboard
  • metronome
×
Best way to learn
"Shiny Happy People"
Autoscroll
slow
fast
+/-
esc
set tempo
stop
Contributor
Difficulty
novice
SHINY HAPPY PEOPLE - REM

Standard Tuning

EADG

Listen to the song for the rhythm.



INTRO

G |--0---------------|------------------|------------------|------------------|
D |---------------0--|--2---------------|------------------|------------------|
A |------------------|---------------0--|--2---------0--2--|--3---------------|
E |------------------|------------------|------------------|------------------|


G |--0------4--2--0--|------------------|------------------|---------------5--|
D |------------------|--2---------------|------------------|------2-----5-----|
A |------------------|---------------0--|--2------2--0--2--|--3---------------|
E |------------------|------------------|------------------|------------------|


VERSE


G |--4-4-------------|------2-------2-2-|--4-4-------------|----2---2-----2-2-|
D |--------2-2--2-2--|--4------2-4------|--------2-2--2-2--|--4-------4-------|
A |------------------|------------------|------------------|------------------|
E |------------------|------------------|------------------|------------------|  x2




CHORUS


G |------------------|------------------|------------------|------------------|
D |--4----4---2------|------------------|-------2-----0--2-|----2--2----------|
A |---------------4--|--4--4--4---2--0--|--0-------4-------|-----------4-4-4--|
E |------------------|------------------|------------------|------------------|


G |------------------|------------------|--2---------------|------------------|
D |--4----4---2------|------------------|-------2--4-----2-|--2--2-2----------|
A |---------------4--|--4--4--4---2--0--|-------------4----|-----------4-4-4--|
E |------------------|------------------|------------------|------------------|


G |------------------|------------------|------------------|------------------|
D |--4--4--4---2-----|------------------|-------------0--2-|--2--2-2----------|
A |---------------4--|--4--4--4---2--0--|--0---0-0-4-------|-----------4-4-4--|
E |------------------|------------------|------------------|------------------|


G |------------------|------------------|------------------|------------------|
D |--4--4--4----2----|------------------|----------4--0--2-|--2--2-2---2-2-2--|
A |---------------4--|--4--4--4---2--0--|--0-----0---------|------------------|
E |------------------|------------------|------------------|------------------|


G |------------------|------------------|------------------|---------------2--|
D |--5----5--4----4--|--2----2--0----0--|--2--2--0------2--|--2-2---2---2-----|
A |------------------|------------------|-----------2------|------------------|
E |------------------|------------------|------------------|------------------|



VERSE


G |--4-4-------------|------2-------2-2-|--4-4-------------|----2---2-----2-2-|
D |--------2-2--2-2--|--4------2-4------|--------2-2--2-2--|--4-------4-------|
A |------------------|------------------|------------------|------------------|
E |------------------|------------------|------------------|------------------| X2




CHORUS


G |------------------|------------------|------2-----------|------------------|
D |--4----4---2------|------------------|-------------0--2-|-2--2--2----------|
A |---------------4--|--4--4--4---2--0--|--0-------4-------|-----------4-4-4--|
E |------------------|------------------|------------------|------------------|


G |------------------|------------------|------2-----------|------------------|
D |--4----4---2------|------------------|---------4--0---2-|--2--2-2----------|
A |---------------4--|--4--4--4---2--0--|------------------|-----------4-4-4--|
E |------------------|------------------|------------------|------------------|


G |------------------|------------------|------------------|------------------|
D |--4--4--4---2-----|------------------|-------------0--2-|-----2-2-----2----|
A |---------------4--|--4--4--4---2--0--|--0----0--4-------|-----------4---4--|
E |------------------|------------------|------------------|--0---------------|


G |------------------|------------------|------------------|------------------|
D |--4-----4----2----|------------------|----------4--0--2-|-----2-2-2-2-2-2--|
A |---------------4--|--4--4--4---2--0--|--0----0----------|------------------|
E |------------------|------------------|------------------|-0----------------|


G |------------------|------------------|------------------|---------------2--|
D |--5----5--4----4--|--2----2--0----0--|--2--2--0------2--|----2---2---2-----|
A |------------------|------------------|-----------2------|------------------|
E |------------------|------------------|------------------|------------------|


VERSE


G |--4-4-------------|------2-------2-2-|--4-4-------------|----2---2-----2-2-|
D |--------2-2--2-2--|--4------2-4------|--------2-2--2-2--|--4-------4-------|
A |------------------|------------------|------------------|------------------|
E |------------------|------------------|------------------|------------------| X2



INTRO

G |--0-----0---------|------------------|------------------|------------------|
D |---------------0--|--2------2--------|------------------|------------------|
A |------------------|---------------0--|--2------2--0--2--|--3---------------|
E |------------------|------------------|------------------|------------------|


G |--0---------2--0--|------------------|------------------|---------------5--|
D |------------------|--2---------------|------------------|------2-----5-----|
A |------------------|---------------0--|--2---------0--2--|--3---------------|
E |------------------|------------------|------------------|------------------|

VERSE

G |--4-4-------------|------2-------2-2-|--4-4-------------|----2---2-----2-2-|
D |--------2-2--2-2--|--4------2-4------|--------2-2--2-2--|--4-------4-------|
A |------------------|------------------|------------------|------------------|
E |------------------|------------------|------------------|------------------|  x8


G |--4-4-------------|------2-------2-2-|
D |--------2-2--2-2--|--4------2-4------|
A |------------------|------------------|
E |------------------|------------------|

By Callum Leech
comments
print report bad tab
I want to post or [tab]
guest
You may want to rate the tab now too:
select rating
Please do not post tabs as comments. Select "correction" instead!