Oops, an error
Loading. Please wait.

Supernatural Superserious Bass Tab

version 2
version 2

Whole song

2,326 views 3 this week
no commentswrite comment
1 2 3 4 5
please rate
add to favorites
launch autoscroll
font size
0
reset
guitar tuner
Tab Pro tools
  • play this tab
  • loop segment
  • change instrument
  • show fretboard
  • metronome
×
Best way to learn
"Supernatural Superserious"
Autoscroll
slow
fast
+/-
esc
set tempo
stop
Difficulty
intermediate
----------------------------------------------------------------------------
			     Supernatural Superserious - R.E.M.
----------------------------------------------------------------------------

Tabbed By : Me
e-mail: mapsandlegends@hotmail.co.uk

Tuning: Standard

Intro
G|--------------------------------------------------------|
D|--------------------------------------------------------|
A|--------------------------------------------------------|
E|---0----2----3----5-------------------------------------|

Verse
G|--------------------------------------------------------|
D|----------------------------------4---------------------|
A|---5---5---7-------------5---5------7-7h9-7/5-----------|
E|-----5--------0---3---5----5----------------------------|

G|--------------------------------------------------------|
D|--------------------------------------------------------|
A|---5---5---7-------------5---5----5-7-7-9-10-9-7-5------|
E|-----5--------0---3---5----5----5-----------------------|

Chorus
G|--------------------------------------------------------|
D|--------------------------------------------------------|
A|---7-------5----------------------5--5------------------|
E|-----0--3-----5-5-5-5--0-0--3--5--------5--5/0----------|

G|--------------------------------------------------------|
D|--------------------------------------------------------|
A|---------5-------------5--------------------------------|
E|---0--3-----5-5-5-5-5-----------------------------------|

Bridge
G|------------------------------------------------------------------------|
D|---3--3--5--2-----0--2---3--3--5---2-------2--3--5--7--10--3--3---------|
A|----------------3-----------------------3---------------------------3---|
E|------------------------------------------------------------------------|


| /  slide up
| \  slide down
| h  hammer-on
| p  pull-off
| ~  vibrato
| +  harmonic
| x  Mute note
===========================================================================
comments
We did not receive enough feedback on this tab! Please rate:
print report bad tab
1 2 3 4 5
I want to post or [tab]
guest
You may want to rate the tab now too:
select rating
Please do not post tabs as comments. Select "correction" instead!