Oops, an error
Loading. Please wait.

Sweetness Follows tab

version 2
version 2

Whole song

Interactive

by R.E.M.
239 views 1 this week
no commentswrite comment
1 2 3 4 5
3 more votes to show rating
add to favorites
×
Save as Personal and add changes to this tab that will be seen only by you. Learn more ›
×
You can save this tab as Personal to edit and correct it or add notes. All changes will be seen only by you. Learn more »
launch autoscroll
font size
0
reset
how to read this tab
guitar tuner
edit
Autoscroll
slow
fast
+/-
esc
set tempo
stop
Author
#----------------------------------PLEASE NOTE--------------------------------#
#This file is the author's own work and represents their interpretation of the#
#song. You may only use this file for private study, scholarship, or research.#
#-----------------------------------------------------------------------------#
#-- File created with Instab - http://www.pconline.com/~smcarey/instab.html --#
#-----------------------------------------------------------------------------#

Author/Artist: REM
Title: Sweetness Follows
Transcribed By: No One

m mute


Tuning (eb A D G B E), Down ~ 10%, (eb, D) Down ~ 20%, Back of pick, palm mute.
Live Tuning (c# A D G B E), Down ~ 10%, (c#, D) Down ~ 20%



----|----------------------------------|--|
----|----------------------------------|--|
----|----------------------------------|--|
----|-7-----------7--------------------|--|
----|-5---5--5----5----5--5---5h7--5---|--|
----|-----6--6---------6--6---6----6---|--|


  Intro/Interlude                                                             



----|-------------------------------------------------------------------------
----|-------------------------------------------------------------------------
----|-------------------------------x--------------7---7--7--7-----6----------
----|-7-------------------7--7-7-7--5--------------x---x--x--x-----x----------
----|-5----------5--------5--5-5-5--5--------10----10--10-10-10----5----------
----|------------6--------x--x-x-x-----------11----11--11-11-11----6----------
        "Listen  here my  sister    and my   brother.              What..you  

  Verse


------------------------------------------------------------------------------
------------------------------------------------------------------------------
-6-----6------x--------x------7---7--7--7-----6----------6-------6------x-----
-7-----x------5--------5------x---x--x--x-----x----------7-------x------5-----
-5-----5------5--------5------10--10-10-10----5----------5-------5------5-----
-6-----6----------m-----------11--11-11-11----6----------6-------6------------
 care  if you lost the other?                   I use to wonder  why   did    



----------------------------------------------------------------------------|
----------------------------------------------------------------------------|
-----------7---7--7--7-----2-------2------2--2-2-2--------------------------|
-----------x---x--x--x-----4-------4------x--x-x-x--5-------5-------5-------|
-----10----10--10-10-10----5-------5------5--5-5-5--5-------5-------5-------|
-----11----11--11-11-11-----------------------------x-----------------------|
 you bother.               Dist.m  one       and    to the  other."       m   





----|--------------------------|------------|
----|--------------------------|------------|
----|-------7-----------7------|------------|
----|-x-----x-----x-----x------|------------|
----|-10----10----10----10-----|------------|
----|-7-----9-----11----9------|------------|


  Bridge Chords                  Intro Riff                                   


            
            
Suggest correction
Creating personal tab
Creating personal tab
You can edit any tab online and save it as your Personal.

You can edit, replace or remove any tab part or add personal notes – all changes will be seen only by you.

Personal tabs can be accessed anytime from any device, even offline.
Learn more »
Give kudos to tab author, rate the tab!
1 2 3 4 5
comments
print report bad tab
guest
You may want to rate the tab now too:
select rating
Wanna post a correction for this tab? Suggest correction