Oops, an error
Loading. Please wait.

Talk About The Passion Tab

version 2
version 2

Whole song

Interactive

6,557 views 3 this week
2 commentsread comments
1 2 3 4 5
please rate
add to favorites
launch autoscroll
font size
0
reset
how to read this tab
guitar tuner
Tab Pro tools
  • play this tab
  • loop segment
  • change instrument
  • show fretboard
  • metronome
×
Best way to learn
"Talk About The Passion"
Autoscroll
slow
fast
+/-
esc
set tempo
stop
Contributor
------------------------------------------------------------------------
                             Talk About The Passion - REM
------------------------------------------------------------------------
Tabbed by: Barnaby Wilde
Email:

Intro and Verse: Hit G Chord before chorus
e|-------------------------------------------------|
B|-------------------------3-------3-2-0-----------|
G|-22--------22-----------0-0-----2-----2----------|
D|-00-0-2-4--00-0-2-4-0--2---2---2-----------------|
A|----------------------3-----3-0------------------|
E|-------------------------------------------------|

Chorus:
e|-0-0-0-0-3-3-3-2-0--0-----------------------------|
B|-2-0-2-0-3-3-3-----3-3----------------------------|
G|-2-2-2-2----------0---0---------------------------|
D|-2-2-2-2-2-2-2-2-2--------------------------------|
A|---------2-2-2-2-2--------------------------------|
E|--------------------------------------------------|

Bridge: Hit G Chord before returning to chorus
"Combien ... "
e|----1----0-0--0-----------------------------------|
B|-1-1-1-1----0-------------------------------------|
G|--2---2-2-2--2------------------------------------|
D|--------------------------------------------------|
A|--------------------------------------------------|
E|--------------------------------------------------|

Lead: x2
e|-2-2-3-5-2-2-3-5-2-3-3-3-2-0-----0-2-0------------|
B|-3-3-3-3-3-3-3-3-3-3-3-3-3-3----3-----------------|
G|-2-2-2-2-2-2-2-2-2-2-2-2-2-2---0------------------|
D|--------------------------------------------------|
A|--------------------------------------------------|
E|--------------------------------------------------|
comments
We did not receive enough feedback on this tab! Please rate:
print report bad tab
1 2 3 4 5
2 comments total.
0 reply
Indie Purist wrote on June 1 2012, 03:14 pm

i think the bridge is more like this, but the rest seems good

E-------1-------------0-------------1-------------0-0-0-----
B-----3---3---3-----0---0---0-----3---3---3-----0---3-3-----
G---2-------2-----2-------0-----2-------2-----2-----0-0-----
D-3-------------2-------------3-------------2-------2-2-----
A-----------------------------------------------------------
E-----------------------------------------------------------

0 reply
Barnaby Wilde wrote on January 20 2015, 06:17 pm

I like it ... it's similar notes, but fuller. I like to play it my way better though!

I want to post or [tab]
guest
You may want to rate the tab now too:
select rating
Please do not post tabs as comments. Select "correction" instead!