Oops, an error
Loading. Please wait.

Texarkana bass

version 2
version 2

Whole song

Interactive

by R.E.M.
1,566 views 3 this week
no commentswrite comment
1 2 3 4 5
x 4
add to favorites
×
Save as Personal and add changes to this tab that will be seen only by you. Learn more ›
×
You can save this tab as Personal to edit and correct it or add notes. All changes will be seen only by you. Learn more »
launch autoscroll
font size
0
reset
guitar tuner
backing track
0:00
0:00
edit
Autoscroll
slow
fast
+/-
esc
set tempo
stop
Author
Difficulty
Tempo : 143 bpm

OPENING PATTERN:
|Solo Riff|
G-|-----------|
D-|-----------|
A-|-------2---|
E-|-0-3/5---0-|

Riff X2
G-|-------------------------------------|-|----------|
D-|-------------------------------------|-|----------|
A-|--------------------2/5-5-5--0/2/5-5-|-|----------|
E-|-0--0-0--0/3--3-3-3------------------|-|-0-5/7-0--|

G-|---------------------------------| |------------|
D-|---------------------------------| |------------|
A-|---------------------------------| |-------2----|
E-|-0--0-0--5--5-5-5--0-3--3-3--3-3-| |-0-3/5---0--|

Verse 1 00:28
Part1
G-|-------------------------------------|-|----------|
D-|-------------------------------------|-|----------|
A-|--------------------2/5-5-5--0/2/5-5-|-|----------|
E-|-0--0-0--0/3--3-3-3------------------|-|-0-5/7-0--|
Twenty thousand miles to an oasis

G-|---------------------------------| |------------|
D-|---------------------------------| |------------|
A-|---------------------------------| |-------2----|
E-|-0--0-0--5--5-5-5--0-3--3-3--3-3-| |-0-3/5---0--|
Twenty thousand years will I burn

Part2
G-|-------------------------------------|-|----------|
D-|-------------------------------------|-|----------|
A-|--------------------2/5-5-5--0/2/5-5-|-|----------|
E-|-0--0-0--0/3--3-3-3------------------|-|-0-5/7-0--|
Twenty thousand chances I wasted

G-|---------------------------|-|-----------|
D-|---------------------------|-|-5--4--2---|
A-|---------------------------|-|-----------|
E-|-0--0-0--5--5-5-5--0-3--3--|-|-----------|
Waiting for the moment to turn

00:52
G-|--------|--------|--------|--------|--------|--------------|
D-|--------|--------|--------|-5--4/2-|-4/5-7--|--------------|
A-|--------|-5--5/5-|-5--5/5-|--------|--------|-3--3/3--2----|
E-|-7--7/7-|--------|--------|--------|--------|-----------5--|
I would give my life to find it
I would give it all
Catch me if I fall

Bridge 01:04
G-|-----------|---------|-----------|---------|------------|
D-|-----------|---------|-----------|---------|------------|
A-|-------2---|-7-5---5-|-------2---|-7-5---5-|-------2----|
E-|-0-3/5---0-|-----7---|-0-3/5---0-|-----7---|-0-3/5---0--|

Verse 2 01:11
Part1
G-|-------------------------------------|-|----------|
D-|-------------------------------------|-|----------|
A-|--------------------2/5-5-5--0/2/5-5-|-|----------|
E-|-0--0-0--0/3--3-3-3------------------|-|-0-5/7-0--|
Walking through the woods I have faced it

G-|---------------------------------| |------------|
D-|---------------------------------| |------------|
A-|---------------------------------| |-------2----|
E-|-0--0-0--5--5-5-5--0-3--3-3--3-3-| |-0-3/5---0--|
Looking for something to learn

Part2
G-|-------------------------------------|-|----------|
D-|-------------------------------------|-|----------|
A-|--------------------2/5-5-5--0/2/5-5-|-|----------|
E-|-0--0-0--0/3--3-3-3------------------|-|-0-5/7-0--|
Thirty thousand thoughts have replaced it,

G-|---------------------------|-|-----------|
D-|---------------------------|-|-5--4--2---|
A-|---------------------------|-|-----------|
E-|-0--0-0--5--5-5-5--0-3--3--|-|-----------|
Never in my time to return

01:38
G-|--------|--------|--------|--------|--------|--------------|
D-|--------|--------|--------|-5--4/2-|-4/5-7--|--------------|
A-|--------|-5--5/5-|-5--5/5-|--------|--------|-3--3/3--2----|
E-|-7--7/7-|--------|--------|--------|--------|-----------5--|
I would give my life to find it
I would give it all
Catch me if I fall

Bridge 01:47
G-|-----------|---------|-----------|---------|------|
D-|-----------|---------|-----------|---------|------|
A-|-------2---|-7-5---5-|-------2---|-7-5---5-|------|
E-|-0-3/5---0-|-----7---|-0-3/5---0-|-----7---|-0~~--|

Interlude 01:55 X2
G-|----------------|-----------------|
D-|----------------|-----------------|
A-|----------------|-----------------|
E-|-5-5/5--5-5-5/5-|-3-3/3--3-3-3/3--|

Riff 02:08
G-|---------|------------|------------|----------------|
D-|---5-----|-5-4--2-5-5~|-5-4--2-4-4~|-5-4-2~~-7-9~~--|
A-|-7---5~--|------------|------------|----------------|
E-|---------|------------|------------|----------------|
All alone
Waiting to fall

. . . .

G-|-----------|
D-|-----------|
A-|-------2---|
E-|-0-3/5---0-|

Verse 3 02:21
Part1
G-|-------------------------------------|-|----------|
D-|-------------------------------------|-|----------|
A-|--------------------2/5-5-5--0/2/5-5-|-|----------|
E-|-0--0-0--0/3--3-3-3------------------|-|-0-5/7-0--|
Forty thousand stars in the evening

G-|---------------------------------| |------------|
D-|---------------------------------| |------------|
A-|---------------------------------| |-------2----|
E-|-0--0-0--5--5-5-5--0-3--3-3--3-3-| |-0-3/5---0--|
Look at them fall from the sky

Part2
G-|-------------------------------------|-|----------|
D-|-------------------------------------|-|----------|
A-|--------------------2/5-5-5--0/2/5-5-|-|----------|
E-|-0--0-0--0/3--3-3-3------------------|-|-0-5/7-0--|
Forty thousand reasons for living

G-|---------------------------|-|-----------|
D-|---------------------------|-|-5--4--2---|
A-|---------------------------|-|-----------|
E-|-0--0-0--5--5-5-5--0-3--3--|-|-----------|
Forty thousand tears in your eye

01:38
G-|--------|--------|--------|--------|--------|--------------|
D-|--------|--------|--------|-5--4/2-|-4/5-7--|--------------|
A-|--------|-5--5/5-|-5--5/5-|--------|--------|-3--3/3--2----|
E-|-7--7/7-|--------|--------|--------|--------|-----------5--|
I would give my life to find it
I would give it all
Catch me if I fall

OUTRO PATTERN 02:57 (x5):
G-|-----------|---------|-----------|----------|
D-|-----------|---------|-----------|----------|
A-|-------2---|-7-5---5-|-------2---|-7-5---5--|
E-|-0-3/5---0-|-----7---|-0-3/5---0-|-----7----|
Catch me if I fall Catch me if I fall

END: 03:37

Author's note : I am back on UltimateGuitar Tabs because I saw
that 23737 (april 2013) musicians around the world had been
using my work and I like the idea of sharing music with other
musicians...
So please "rate" my tabs under Bruno Frenchy and look for me
on You Tube for some videos (just a small selection of my work
for now)...

            
            
Suggest correction
Creating personal tab
Creating personal tab
You can edit any tab online and save it as your Personal.

You can edit, replace or remove any tab part or add personal notes – all changes will be seen only by you.

Personal tabs can be accessed anytime from any device, even offline.
Learn more »
comments
print report bad tab
guest
You may want to rate the tab now too:
select rating
Wanna post a correction for this tab? Suggest correction