Oops, an error
Loading. Please wait.

The Lifting Bass Tab

19 views 1 this week
no commentswrite comment
1 2 3 4 5
3 more votes to show rating
add to favorites
launch autoscroll
font size
0
reset
guitar tuner
Autoscroll
slow
fast
+/-
esc
set tempo
stop
Help us to improve Ultimate-Guitar.com Take our survey!
×
[Intro]

G|------------------|------------------|------------------|------------------|
D|-5----------------|---------3--------|-5----------------|---------3--------|
A|------------------|-5----------------|------------------|-5----------------|
E|------------------|------------------|------------------|------------------|

G|---------7--------|------------------|------------------|------------------|
D|-5----------------|---------3--------|-5----------------|---------3--------|
A|------------------|-5----------------|------------------|-5----------------|
E|------------------|------------------|------------------|------------------|


[Verse 1]

G|------------------|------------------|------------------|------------------|
D|-5---5--0-5---0---|-3---3-2----0-----|-5---5---0--5---0-|-3-----3---0--3---|
A|------------------|------------------|------------------|------------------|
E|------------------|------------------|------------------|------------------|

G|------------------|------------------|------------------|------------------|
D|-5----5---0--5---0|-3----3--2----0---|-5---5---0--5--32-|-3---------0-3-0--|*
A|------------------|------------------|------------------|------------------|*
E|------------------|------------------|------------------|------------------|

[Pre-Chorus]

G|------------------|------------------|------------------|---------5-----4--|
D|-7----7------7----|-5----5-------5--5|-7----7------7----|-5----5-----------|
A|----------7------7|-----------7------|----------7------7|------------------|
E|------------------|------------------|------------------|------------------|

G|------------------|------------------|------------------|------------------|
D|-7----7-7---7-----|-5----5------5----|------------------|------------------|
A|----------7------7|----------7------5|-7-7-7-7-7-7-7-7--|-7-5-7-7-5-7-7-5--|
E|------------------|------------------|------------------|------------------|


[Verse 2]

G|------------------|------------------|------------------|------------------|
D|-5---5--0-5---0---|-3---3-2----0-----|-5---5---0--5---0-|-3-----3---0--3---|
A|------------------|------------------|------------------|------------------|
E|------------------|------------------|------------------|------------------|

G|------------------|------------------|------------------|------------------|
D|-5----5---0--5---0|-3----3--2----0---|-5---5---0--5--32-|-3---------0-3-0--|*
A|------------------|------------------|------------------|------------------|*
E|------------------|------------------|------------------|------------------|


[Pre-Chorus]

G|------------------|------------------|------------------|---------5-----4--|
D|-7----7------7----|-5----5-------5--5|-7----7------7----|-5----5-----------|
A|----------7------7|-----------7------|----------7------7|------------------|
E|------------------|------------------|------------------|------------------|

G|------------------|------------------|------------------|------------------|
D|-7----7-7---7-----|-5----5------5----|------------------|------------------|
A|----------7------7|----------7------5|-7-7-7-7-7-7-7-7--|-7-5-7-7-5-7-7-5--|
E|------------------|------------------|------------------|------------------|


[Chorus]

G|------------------|------------------|
D|------------------|-5-5-5-7----7-7-7-|*
A|-3-3-3-5---5-5-5--|------------------|*
E|------------------|------------------|

G|------------------|------------------|------------------|------------------|
D|------------------|-5-5-5-7----5-5-7-|------------------|------------------|
A|-3-3-3-5----5-5-5-|------------------|-7-7-7-7-7-7-7-7--|-7-5-7-7-5-7-7-5--|
E|------------------|------------------|------------------|------------------|


[Solo]

G|------------------|------------------|------------------|------------------|
D|-5---5---0--5---0-|-3---3--2---0-----|-5---5---0--5---3-|----------0--3--0-|
A|------------------|------------------|------------------|------------------|
E|------------------|------------------|------------------|------------------|

G|------------------|------------------|------------------|------------------|
D|-5---5---0--5---0-|-3---3--2---0-----|-5---5---0--5---3-|-------0---3---0--|
A|------------------|------------------|------------------|------------------|
E|------------------|------------------|------------------|------------------|


[Verse 3]

G|------------------|------------------|------------------|------------------|
D|-5---5--0-5---0---|-3---3-2----0-----|-5---5---0--5---0-|-3-----3---0--3---|
A|------------------|------------------|------------------|------------------|
E|------------------|------------------|------------------|------------------|

G|------------------|------------------|------------------|------------------|
D|-5----5---0--5---0|-3----3--2----0---|-5---5---0--5--32-|-3---------0-3-0--|*
A|------------------|------------------|------------------|------------------|*
E|------------------|------------------|------------------|------------------|


[Pre-Chorus]

G|------------------|------------------|------------------|---------5-----4--|
D|-7----7------7----|-5----5-------5--5|-7----7------7----|-5----5-----------|
A|----------7------7|-----------7------|----------7------7|------------------|
E|------------------|------------------|------------------|------------------|

G|------------------|------------------|------------------|------------------|
D|-7----7-7---7-----|-5----5------5----|------------------|------------------|
A|----------7------7|----------7------5|-7-7-7-7-7-7-7-7--|-7-7-7-7-7-7-7-7--|
E|------------------|------------------|------------------|------------------|



[Verse 4]

G|------------------|------------------|------------------|------------------|
D|-5---5--0-5---0---|-3---3-2----0-----|-5---5---0--5---0-|-3-----3---0--3---|
A|------------------|------------------|------------------|------------------|
E|------------------|------------------|------------------|------------------|

G|------------------|------------------|------------------|------------------|
D|-5----5---0--5---0|-3----3--2----0---|-5---5---0--5--32-|-3---------0-3-0--|*
A|------------------|------------------|------------------|------------------|*
E|------------------|------------------|------------------|------------------|


[Last 4 Bars]

G|------------------|------------------|------------------|------------------------|
D|-5---5---0--5---0-|-3---3--2---0-----|-5---5--0--5---0--|-3-0-2-3---2-0----------|
A|------------------|------------------|------------------|------------------------|
E|------------------|------------------|------------------|------------------------|
Suggest correction
Give kudos to tab author, rate the tab!
1 2 3 4 5
comments
print report bad tab
guest
You may want to rate the tab now too:
select rating
Wanna post a correction for this tab? Suggest correction