Oops, an error
Loading. Please wait.

Wolves Lower Tab

version 1
version 1

Whole song

  • The other two versions are not plain text.

Interactive

28 views 6 this week
no commentswrite comment
1 2 3 4 5
3 more votes to show rating
add to favorites
launch autoscroll
font size
0
reset
how to read this tab
guitar tuner
Autoscroll
slow
fast
+/-
esc
set tempo
stop
Help us to improve Ultimate-Guitar.com Take our survey!
×
Author
Difficulty
intermediate
About this tab version
The other two versions are not plain text. Was this info helpful? Yes No
REM - Wolves, Lower

(RIFF 1)
e|-----0-----0-----0-----0----------0---0--0----0----0--0-----|
B|*---8----10-----8----10---8/10---0---0-------0----0--------*|
G|---9---11------9---11-----9/11--9---8---6-------------------|
D|--------------------------------------------7----9---9------|
A|*----------------------------------------------------------*|
E|------------------------------------------------------------|
     Suspicion yourself...

(RIFF 2)
e|---------------0---0---0--0----------------0---0---0--0-----|
B|*--10-9-7-------0---0------0---10-9-7-------0---0------0---*|
G|----------9--7---7---7------7---------9--6---6---6------6---| x2
D|------------------------------------------------------------|
A|*----------------------------------------------------------*|
E|------------------------------------------------------------|
               In a corner garden...
e|----0---0---0---0----|
B|--5---4---2---0------|
G|---------------------|
D|---------------------|
A|---------------------|
E|---------------------|

(RIFF 3)
     A  D  G  C           G Gsus4 G Gsus4 G Gsus4 G  
e|---5--0--3--0-------|---3-3-----3-3-----3-3-----3--------|
B|*--5--0--3--0------*|---3-3-----3-3-----3-3-----3--------|
G|---6--7--4--5--(x4)-|---4-5-----4-5-----4-5-----4--------|
D|---7--7--5--5-------|---5-5-----5-5-----5-5-----5--------|
A|*-----5-----3------*|------------------------------------|
E|--------------------|------------------------------------|
     I will say...        Don’t live around me...

(RIFF 4)
e|-7-7--10-9--7-7-7--9-7--|--12-12--10-9---7-7-7--9-7------|
B|-8-8--8--8--8-8-8--8-8--|*-10-10--10-10--8-8-8--8-8-----*|
G|------------------------|---------------------------(x3)-|
D|------------------------|--------------------------------|
A|------------------------|*------------------------------*|
E|------------------------|--------------------------------|

[INTRO]
(RIFF 1) x4

(RIFF 1) x4
Suspicion yourself, suspicion yourself, don't get caught
Suspicion yourself, suspicion yourself, let us out
Wilder lower, wolves. 
Here's a house to put  wolves out the door.

(RIFF 2)
In a corner garden, wilder lower wolves
(RIFF 3)
I will say in order, (ah ha ah ha) x4
Don’t live around me or cause me to run

(RIFF 1) x4
Suspicion yourself, suspicion yourself, don't get caught
Suspicion yourself, suspicion yourself, let us out
Wilder lower wolves. 
Here's a house to put wolves out the door.

(RIFF 2)
In a corner garden, wilder lower, wolves
(RIFF 3)
I will say in order, (ah ha ah ha) 4x
Don’t live around me nor cause me to run

[BRIDGE]
(RIFF 4)

(RIFF 1) x2

(RIFF 1) x4
Suspicion yourself, suspicion yourself, don't get caught
Suspicion yourself, suspicion ourselves, suspicion myself
Wilder lower, wolves. Here's a house to put wolves at the door.

(RIFF 2)
In a corner garden, wilder lower, wolves
(RIFF 3)
I will say in order, (ah ha ah ha) 4x
Don’t live around me nor cause me to run

Suggest correction
Give kudos to tab author, rate the tab!
1 2 3 4 5
comments
print report bad tab
guest
You may want to rate the tab now too:
select rating
Wanna post a correction for this tab? Suggest correction