Oops, an error
Loading. Please wait.

Ignition Bass Tab

10,254 views 18 this week
2 commentsread comments
1 2 3 4 5
excellent!
x 6
add to favorites
launch autoscroll
font size
0
reset
guitar tuner
Autoscroll
slow
fast
+/-
esc
set tempo
stop
Help us to improve Ultimate-Guitar.com Take our survey!
×
Artist: R.Kelly
Song  : Ignition (Remix)
Tabber: James Pucyk (pucyk_james@hotmail.com)

This is one grooving bassline and is the heart of the song.
The chords used are posted above the actual bassline. If 
you want to follow the lyrics, take a look at the chords
for the first chord progression on Ultimate-guitar.com, 
that person figured the same chords as I did and I am very
confident they are correct.

Verse and Choruses
   G#      C#  C  A#m	   Eb
G|---------------------------------|
D|---------------------------------|
A|----------4--3--1--11-1--6--66-6-|
E|-4--1/3-4------------------------|

Bridge
(Doot-doot/beep-beep part)
G|----------------------------86------86-----|
D|---------------------------8--86---8--86---|
A|----------4--3--1--11-1---6-----8-6-----86-|
E|-4--1/3-4----------------------------------|

FIN
Suggest correction
comments
print report bad tab
2 comments total.
0 reply
magicaljuju 10 wrote on November 11 2013, 03:44 pm

I think the filtered part is just:
|-----8---6---5---8---|
|---------------------|
|---6---4---3---4-----|
|---------------------|

That and the F/G slide you have in the verse should be A#/C on the A-string.

0 reply
zephyrbass 32 wrote on July 2 2014, 07:27 pm

G# C# C A#m Eb
G|---------------------------------|
D|---------------------------------|
A|---2h3---4--3--1--11-1--6--66-6--|
E|-4-----4-------------------------|

guest
You may want to rate the tab now too:
select rating
Wanna post a correction for this tab? Suggest correction