Oops, an error
Loading. Please wait.

Rock Star Tab

version 2
version 2

Whole song

3,667 views 1 this week
no commentswrite comment
1 2 3 4 5
please rate
add to favorites
launch autoscroll
font size
0
reset
how to read this tab
guitar tuner
Tab Pro tools
  • play this tab
  • loop segment
  • change instrument
  • show fretboard
  • metronome
×
Best way to learn
"Rock Star"
Autoscroll
slow
fast
+/-
esc
set tempo
stop
Contributor
-------------------------------------------------------------------------------
               Rock Star - R. Kelly ft. Ludacris and Kid Rock
-------------------------------------------------------------------------------
Tabbed by: Stryker
Email: ajbahlmann@gmail.com

Tuning: Standard

Intro (found on the music video): Clean
e|---------------------------------------------------------------------------|
B|---------------------------------------------------------------------------|
G|---------------------------------------------------------------------------|
D|----3b^5-3--1-0-1---3-4-3-4--6--4-3-4-3--1-0-1-----------------------------|
A|---------------------------------------------------------------------------|
E|---------------------------------------------------------------------------|

e|---------------------------------------------------------------------------|
B|---------------------------------------------------------------------------|
G|-3-x-3---3b^5-3------3-x-3---3b^5-3----1-x-1---3b^5-1----------------------|
D|-3-x-3---------------3-x-3-------------------------------------------------|
A|-1-x-1---------------1-x-1-------------------------------------------------|
E|---------------------------------------------------------------------------|

e|------------------------------------------------------------------------------|
B|------------------------------------------------------------------------------|
G|----3-------------------------------------------3-----------------------------|
D|----3---3b^5-1-----3-4---6---4-3-4-3--1-0-1-----3-----------------------------|
A|-0--1-------------------------------------------1-----------------------------|
E|------------------------------------------------------------------------------|

Riff: Distortion Pedal
e|---------------------------------------------------------------------------|
B|---------------------------------------------------------------------------|
G|---------------------------------------------------------------------------|
D|--2--4-5--6--5b^7--4~----------------2--4-5--6--5b^7--4~-------------------|
A|---------------------------------------------------------------------------|
E|---------------------------------------------------------------------------|

(5x times)

Chorus: Distortion Pedal
e|---------------------------------------------------------------------------|
B|---------------------------------------------------------------------------|
G|---------------------------------------------------------------------------|
D|---2--4-5--6--5b^7--4~------9\0----------2--4-5--6--5b^7--4~------9\0------|
A|---------------------------------------------------------------------------|
E|---------------------------------------------------------------------------|

(2x times)

Intro
Riff
Chorus
Riff
Chorus
Riff
Chorus


| /  slide up
| \  slide down
| b^ bend up
| h  hammer-on
| p  pull-off
| ~  vibrato
| +  harmonic
| x  Mute note
===============================================================================
I don't own the cd this is just from watching the music video over and over... and I
a lot... but it's pretty basic and not too complicated... listen to the song and you'll
it pretty well. I can't not however get the starting intro but I'm sure somebody will 
I don't have the second guitar background parts in this tab...
comments
We did not receive enough feedback on this tab! Please rate:
print report bad tab
1 2 3 4 5
I want to post or [tab]
guest
You may want to rate the tab now too:
select rating
Please do not post tabs as comments. Select "correction" instead!