Oops, an error
Loading. Please wait.

Same Girl Tab

9,353 views 3 this week
no commentswrite comment
1 2 3 4 5
please rate
add to favorites
launch autoscroll
font size
0
reset
how to read this tab
guitar tuner
Autoscroll
slow
fast
+/-
esc
set tempo
stop
Help us to improve Ultimate-Guitar.com Take our survey!
×
Author
Same Girl – R. Kelly

 High Part(Guitar 1)

     Same Girl,    Same Girl
e|-------2h4-2-------4h6-4-----------11-9-6--------------------|
B|--------------6------------------------------4---------------|
G|---4----------6------------------------------6---------------|
D|---4----------3------------------------------4---------------|
A|---1-----------------------------------------6---------------|
E|-------------------------------------------------------------|

Rhythm(Guitar 2)
e|-------------------------------------------------------------|
B|-----------------------------------4-------------------------|
G|---1----------3-----------------------3-1--------------------|
D|-------------------------------------------------------------|
A|-------------------------------------------------------------|
E|-------------------------------------------------------------|

Third Time

Rhythm(Guitar 2)
e|-------------------------------------------------------------|
B|-------0-----------2---------------4-------------------------|
G|--------------------------------------3-1--------------------|
D|-------------------------------------------------------------|
A|-------------------------------------------------------------|
E|-------------------------------------------------------------|
Note the different cues in the third time

Fourth Time

Rhythm(Guitar 2)
e|-------------------------------------------------------------|
B|---0----------2--------------------4-------------------------|
G|--------------------------------------3-1--------------------|
D|-------------------------------------------------------------|
A|-------------------------------------------------------------|
E|-------------------------------------------------------------|
Back to original cues
Suggest correction
Give kudos to tab author, rate the tab!
1 2 3 4 5
comments
print report bad tab
guest
You may want to rate the tab now too:
select rating
Please do not post tabs as comments. Select "correction" instead!