Oops, an error
Loading. Please wait.

See My Jumper Hanging On The Line tab

version 1
version 1

Whole song

1,051 views 60 this week
6 commentsread comments
1 2 3 4 5
1 last vote to show rating
add to favorites
×
Save as Personal and add changes to this tab that will be seen only by you. Learn more ›
×
You can save this tab as Personal to edit and correct it or add notes. All changes will be seen only by you. Learn more »
launch autoscroll
font size
0
reset
how to read this tab
guitar tuner
edit
Autoscroll
slow
fast
+/-
esc
set tempo
stop
Tabbed by J

Tuning Note: he often plays it sharp but it is all relatove to standard, thanks to TDR11188 for finding
his tuning to be sharp at 451 hz

Relevant videos
Spottytoad lesson for the ryhtym bit of this song - > https://www.youtube.com/watch?v=BdNiJcZQsrI
Version of the song I tabbed this from - > https://www.youtube.com/watch?v=K_DOnKJ232M

[Intro]
       Upstrum   
e|-----0-0-0-0---------------|
e|---0-0-0-0-0-0-3-0---------|
G|-------------------0-2p0---|
D|-------------------------2-|
A|---------------------------|
E|-0-------------------------|

[Verse]
Here is the strumming pattern but please watch some videos to learn it, it is played without a pick
First beat strum with two fingers then go through the full chord with thumb

e|---0-0----0-0----0-0----0-0-0-|
B|---0-0----0-0----0-0----0-0-0-|
G|---0-0----0-0----0-0----0-0-0-| x 16
D|-2-2-2----x-x--2-2-2----x-x-2-|
A|---x-x--2-2-2----x-x--2-2-2-2-|
E|-0-0-0--0-0-0--0-0-0--0-0-0-0-|

[Chorus]
When RL performs the Riffs this is how it is done, sometimes he changes the orders of the riffs and often
he'll play a riff twice then do the other riff, please listen and watch the song 

e|---0-0----0-0----0-0----0-0-0-|
B|---0-0----0-0----0-0----0-0-0-|
G|---0-0----0-0----0-0----0-0-0-| x 2
D|-2-2-2----x-x--2-2-2----x-x-2-|
A|---x-x--2-2-2----x-x--2-2-2-2-|
E|-0-0-0--0-0-0--0-0-0--0-0-0-0-|
       Upstrum
e|-----0-0-0-0---------------|
e|---0-0-0-0-0-0-3-0---------|
G|-------------------0-2p0---|
D|-------------------------2-|
A|---------------------------|
E|-0-------------------------|

e|---0-0----0-0----0-0----0-0-0-|
B|---0-0----0-0----0-0----0-0-0-|
G|---0-0----0-0----0-0----0-0-0-| x 2
D|-2-2-2----x-x--2-2-2----x-x-2-|
A|---x-x--2-2-2----x-x--2-2-2-2-|
E|-0-0-0--0-0-0--0-0-0--0-0-0-0-|

e|---0------------------------|
B|-0-------2-2-0--------------|
G|-----2-0-------2-0-2b-2-0---|
D|--------------------------2-|
A|----------------------------|
E|----------------------------|

[Outro]
e|-5/3--------------------------|
B|-----3-0----------------------|
G|---------2-0------------------|
D|--------------2p0---2-2p0-2---|
A|------------------2-----------|
E|----------------------------0-|


************************************

| p   Pull-off
| b   Bend
| /   Slide 
| x   Dead Note

************************************

            
            
Suggest correction
Creating personal tab
Creating personal tab
You can edit any tab online and save it as your Personal.

You can edit, replace or remove any tab part or add personal notes – all changes will be seen only by you.

Personal tabs can be accessed anytime from any device, even offline.
Learn more »
Give kudos to tab author, rate the tab!
1 2 3 4 5
comments
print report bad tab
6 comments total. Showing first comments.
+1 reply
TDR11188 10 May 28, 2017 10:09 PM

The tuning is a bit off, in a video I heard, from what I could tell, he's tuned half a step up at 451 hz. I tried to get the 4th string to sound like his and then I worked out the 5th string, I did this at 440 hz, but it was too sharp for it, 451 seems like the right frequency for the rest of the guitar also.

+1 reply
treynolds11188 10 May 30, 2017 07:14 AM

https://youtu.be/K_DOnKJ232M
Quite good as it actually shows him playing

+1 reply
mdub123 10 Aug 13, 2017 09:57 AM

He's actually tuned to F. I've broken a few strings it's tight!

guest
You may want to rate the tab now too:
select rating
Wanna post a correction for this tab? Suggest correction