Oops, an error
Loading. Please wait.

Lifes A Bummer tab

490 views 3 this week
no commentswrite comment
1 2 3 4 5
2 more votes to show rating
add to favorites
×
Save as Personal and add changes to this tab that will be seen only by you. Learn more ›
×
You can save this tab as Personal to edit and correct it or add notes. All changes will be seen only by you. Learn more »
launch autoscroll
font size
0
reset
how to read this tab
guitar tuner
edit
Autoscroll
slow
fast
+/-
esc
set tempo
stop
Author
Live version https://www.youtube.com/watch?v=UB61K-QmcTg


[Intro]

e|---------------------------------------------------------------------------|
B|---------------------------------------------------------------------------|
G|--------0-------0-------0-------0------------------------------------------|
D|----0-------0-------0-------0----------------------------------------------|
A|------0-------0-------0-------0--------------------------------------------| 1x
E|--3-------3-------3-------3------------------------------------------------|


[Verse]

e|---------------------------------------------------------------------------|
B|--------0-------0-------0-------0------------------------------------------|
G|----0-------0-------0-------0-----------0-------0-------0-------0----------|
D|------0-------0-------0-------0-----0-------0-------0-------0--------------|
A|--3-------3-------3-------3-----------0-------0-------0-------0------------| 3x
E|----------------------------------3-------3-------3-------3----------------|

things get hard when yr hearts not there
things get hard when yr hearts not there 
and if u die u never know why 
and maybe u dont care  


[Chorus]

e|---------------------------------------------------------------------------|
B|---------------------------------------------------------------------------|
G|----0---0---0---0---0---0--------------------------------------------------|
D|------0---2---0-------0----------------------------------------------------|
A|--3---------------3--------------------------------------------------------| 3x
E|--------------------------3------------------------------------------------|

im givin up hopin' i will get the things i need 
life is a bummer 
wish i could give a fuck but im too broken 


[Interlude]

e|---------------------------------------------------------------------------|
B|---------------------------------------------------------------------------|
G|--------0-------0-------0-------0------------------------------------------|
D|----0-------0-------0-------0----------------------------------------------|
A|------0-------0-------0-------0--------------------------------------------| 1x
E|--3-------3-------3-------3------------------------------------------------|


[Verse]

e|---------------------------------------------------------------------------|
B|--------0-------0-------0-------0------------------------------------------|
G|----0-------0-------0-------0-----------0-------0-------0-------0----------|
D|------0-------0-------0-------0-----0-------0-------0-------0--------------|
A|--3-------3-------3-------3-----------0-------0-------0-------0------------| 3x
E|----------------------------------3-------3-------3-------3----------------|

i had a dream and u were there 
i woke up feeling sad 
fell asleep to try and find u 
got lost inside my head 


[Chorus]

e|---------------------------------------------------------------------------|
B|---------------------------------------------------------------------------|
G|----0---0---0---0---0---0--------------------------------------------------|
D|------0---2---0-------0----------------------------------------------------|
A|--3---------------3--------------------------------------------------------| 2x
E|--------------------------3------------------------------------------------|

sit around and wait to die 
while nothing happens, no one tries 
pull this trigger on my mind 
cuz life's a fucking bummer 


[Outro]

e|---------------------------------------------------------------------------|
B|---------------------------------------------------------------------------|
G|----0---0---0---0---0---0--------------------------------------------------|
D|------0---2---0-------0----------------------------------------------------|
A|--3---------------3--------------------------------------------------------| 4x
E|--------------------------3------------------------------------------------|

life is a bummer
life is a bummer
life is a bummer
life's a fucking bummer

            
            
Suggest correction
Creating personal tab
Creating personal tab
You can edit any tab online and save it as your Personal.

You can edit, replace or remove any tab part or add personal notes – all changes will be seen only by you.

Personal tabs can be accessed anytime from any device, even offline.
Learn more »
Give kudos to tab author, rate the tab!
1 2 3 4 5
comments
print report bad tab
guest
You may want to rate the tab now too:
select rating
Wanna post a correction for this tab? Suggest correction