Oops, an error
Loading. Please wait.

Do You Call My Name Tab

version 4
version 4

Whole song

Interactive

10,575 views 6 this week
6 commentsread comments
1 2 3 4 5
x 7
add to favorites
launch autoscroll
font size
0
reset
how to read this tab
guitar tuner
Autoscroll
slow
fast
+/-
esc
set tempo
stop
Author
Author/Artist: Ra
Title: Do You Call My Name
Album: Self Titled I think...
Transcribed by: Matt Collins
Email: bonkers049@hotmail.com

Intro
-------------------------------------------------------------------------
------------------------------------------------------------------------- Repeat
-----1------1-2-4-----1-----------------1------1-2-4------1-------------- 2 more    
-3-2----3-2-------3-2---3-2-----3p2-3p2----3-2--------3-2----3-2--------- times.
----------------------------2-3----------------------------------2-3-----
-------------------------------------------------------------------------
                                                                              
End intro with this
--------2--3-------------------------------------------------------------
--------2--3-------------------------------------------------------------
--------2--3—--let each chord ring---------------------------------------
------0-2--3-------------------------------------------------------------
--2-3---2--3-------------------------------------------------------------
--------2--3-------------------------------------------------------------
                                                                              
Verse/Chorus
-----3-3-2-2------3-3-2-2------------------------------------------------
------------------------------1-1-0-0------------------------------------
-------------------------------------------------------------------------
-------------------------------------------------------------------------
-------------------------------------------------------------------------
-222---------2222---------222--------------------------------------------
                                                                              
Pre-chorus
----------------------------------------------------------------------------
----------------------------------------------------------------------------
----------------------------------------------------------------------------
-10-10-10-10-9-9-9-9--10-10-10-10-9-9-9-9--10-10-10-10-9-9-9-9--5-5-5-5-2-2-
-10-10-10-10-9-9-9-9--10-10-10-10-9-9-9-9--10-10-10-10-9-9-9-9--5-5-5-5-2-2-
-10-10-10-10-9-9-9-9--10-10-10-10-9-9-9-9--10-10-10-10-9-9-9-9--5-5-5-5-2-2-
  
 Verse
 The solo is the same as the intro.
 Pre-Chorus
 Chorus 2X                                                                       

This is my first tab so cut me some slack if it's wrong,
pretty sure it's right. Any Comments or corrections send me an e-mail.
Suggest correction
comments
print report bad tab
6 comments total. Showing first comments.
0 reply
blindfold7 15 Aug 25, 2003 12:00 AM

wouldnt it be D-drop tuning?

0 reply
Pollo 30 Aug 26, 2003 12:00 AM

I forgot that this was actually drop D tuning, but i'm still not sure because the chorus sounds weird with the Drop D tune..but play it watever way you like.
-pollo

-1 reply
CmS 62 Jul 04, 2006 07:27 PM

Every single tab ive seen on this site is wrong.
For this song they use a 7 string guitar, tuned in BEADGBE.
The intro riff goes like this

E------------------------------------
B------------------------------------
G------------------------------------
D------------------------------------
A------------------------------------
E-----4b-----4--5-7-----4-----2-3----
B-6-5----6-5--------6-5---6-5-0-1-6-5 (repeat)

Maybe ill put the correct version on myself

guest
You may want to rate the tab now too:
select rating
Wanna post a correction for this tab? Suggest correction