Oops, an error
Loading. Please wait.

Rectifier Tab

version 1
version 1

Whole song

Interactive

by Ra
2,231 views 6 this week
6 commentsread comments
1 2 3 4 5
3 more votes to show rating
add to favorites
launch autoscroll
font size
0
reset
how to read this tab
guitar tuner
×
Best way to learn
"Rectifier"
Autoscroll
slow
fast
+/-
esc
set tempo
stop
TABBED by M_Jones18


1st guitar intro

repeat 4x, Its tricky so you gotta listen carefully
E--------2------3-2-----------------------------------------------------------
B------0--0-3-3-----3---------------------------------------------------------
G----0-----0-0-0---0-0--------------------------------------------------------
D--2--------------------------------------------------------------------------
A-----------------------------------------------------------------------------
D-----------------------------------------------------------------------------

2nd guitar Intro
repeat 2x
E----------------------------------------------------------------------------- 
B-----------------------------------------------------------------------------
G-----------------------------------------------------------------------------
D--xxx---222--000---555--000--222-444--555--000-------------------------------
A--xxx---222--000---555--000--222-444--555--000-------------------------------
D--xxx---222--000---555--000--222-444--555--000-------------------------------

the bass starts to play what the 2nd guitar just played with some freaky
harmonics going on then the next guitar comes in about the same as it did in the intro

guitar 2
repeat 4x
E-----------------------------------------------------------------------------
B-----------------------------------------------------------------------------
G-----------------------------------------------------------------------------
D---xxxx------2-2--xxxx---5-5---xxxx------------------------------------------
A---xxxx------2-2--xxxx---5-5---xxxx------------------------------------------
D---xxxx------2-2--xxxx---5-5---xxxx------------------------------------------

Bridge

E-----------------------------------------------------------------------------
B-----------------------------------------------------------------------------
G-----------------------------------------------------------------------------
D--10---7---10---7--xxx-------------------------------------------------------
A--10---7---10---7--xxx-------------------------------------------------------
D--10---7---10---7--xxx-------------------------------------------------------

then repeat the two intros together to form the chorus but play 4x

thats basically the song cept for a small part at the end which
I will finish tabbing later
Suggest correction
Give kudos to tab author, rate the tab!
1 2 3 4 5
comments
print report bad tab
6 comments total. Showing first comments.
0 reply
Pollo 30 Aug 23, 2003 08:00 PM

Second guitar intro
E------------------------------------|
B------------------------------------|
G------------------------------------|
D--0-0-0-0h2-2-2-2-0-0-0-0h5-5-5-5-0-|
A--0-0-0-0h2-2-2-2-0-0-0-0h5-5-5-5-0-|
D--0-0-0-0h2-2-2-2-0-0-0-0h5-5-5-5-0-|

I think this sounds better though...

0 reply
dOwnstOnE 191 Mar 17, 2004 07:00 PM

I think the intro sounds better like this.

E-------2-----0---------3---2--------|
B-----3---0-----------3---3---3------|
G---0-------0---0---0-----------0----|
D-4---------------4------------------|
A------------------------------------|
D------------------------------------|

0 reply
dOwnstOnE 191 May 31, 2004 08:00 PM

E-------2-----0---------3---2--------|
B-----3---3-----------3---3---3------|
G---0-------0---0---0-----------0----|
D-4---------------4------------------|
A------------------------------------|
D------------------------------------|

guest
You may want to rate the tab now too:
select rating
Wanna post a correction for this tab? Suggest correction