Oops, an error
Loading. Please wait.

Whos To Blame tab

by Ra
43 views 3 this week
no commentswrite comment
1 2 3 4 5
3 more votes to show rating
add to favorites
×
Save as Personal and add changes to this tab that will be seen only by you. Learn more ›
×
You can save this tab as Personal to edit and correct it or add notes. All changes will be seen only by you. Learn more »
launch autoscroll
font size
0
reset
how to read this tab
guitar tuner
edit
Autoscroll
slow
fast
+/-
esc
set tempo
stop
                          ***   WHO'S TO BLAME   ***

                                    by Ra    



tabbed by:    Dropdeee
tuning:       Drop-C  (C G C F A D)
effects:      delay, distortion
video:        https://www.youtube.com/watch?v=_B3q32qMG7U




 [Intro]

 [Gtr 1 - clean, with delay]  
D|---12-------------------------------|---12---------------------------------|
A|------10----------------------------|------10------------------------------|
F|------------------------------------|--------------------------------------|
C|------------------------------------|--------------------------------------|
G|------------------------------------|--------------------------------------|
C|------------------------------------|--------------------------------------|

D|------------------------------------|---12---------------------------------|
A|---17-------------------------------|------10------------------------------|
F|------14----------------------------|--------------------------------------|
C|------------------------------------|--------------------------------------|
G|------------------------------------|--------------------------------------|
C|------------------------------------|--------------------------------------|


 [Gtr 2 - clean, with delay]
D|------------------------------------|--------------------------------------|
A|------------------------------------|--------------------------------------|
F|------------------------------------|--------------------------------------|
C|--12-14h15----12--12h14--14h15p14---|---12-15-14h15p14--10---10-12---12p9--|
G|------------------------------------|--------------------------------------|
C|------------------------------------|--------------------------------------|

D|------------------------------------|--------------------------------------|
A|------------------------------------|--------------------------------------|
F|------------------------------------|--------------------------------------|
C|--12-14h15----12--12h14--14h15p14---|---12-15-14h15p14--10---10-12---12p9--|
G|------------------------------------|--------------------------------------|
C|------------------------------------|--------------------------------------|




 [Verse 1]

 [Gtr 1 - clean, with delay]
D|---12-------------------------------|---12---------------------------------|
A|------10----------------------------|------10------------------------------|
F|------------------------------------|--------------------------------------|
C|------------------------------------|--------------------------------------|
G|------------------------------------|--------------------------------------|
C|------------------------------------|--------------------------------------|

D|------------------------------------|---12---------------------------------|
A|---17-------------------------------|------10------------------------------|
F|------14----------------------------|--------------------------------------|
C|------------------------------------|--------------------------------------|
G|------------------------------------|--------------------------------------|
C|------------------------------------|--------------------------------------|


 [Gtr 2 - clean, with delay]
D|------------------------------------|--------------------------------------|
A|------------------------------------|--------------------------------------|
F|------------------------------------|--------------------------------------|
C|--12-14h15----12--12h14--14h15p14---|---12-15-14h15p14--10---10-12---12p9--| 4 times
G|------------------------------------|--------------------------------------|
C|------------------------------------|--------------------------------------|




 [Chorus 1 - distortion]

D|------------------------------------|--------------------------------------|
A|------------------------------------|--------------------------------------|
F|---5/7-7-7-7------------------------|---5/7-7-7-7--------------------------|
C|---5/7-7-7-7------------------------|---5/7-7-7-7--------------------------|
G|---3/5-5-5-5------------------------|---3/5-5-5-5-----7--7/8--8----5-5-5---|
C|--------------0-0-0---2-2--3-3-0----|--------------------------------------|

D|------------------------------------|--------------------------------------|
A|------------------------------------|--------------------------------------|
F|---5/7-7-7-7------------------------|---5/7-7-7-7--------------------------|
C|---5/7-7-7-7------------------------|---5/7-7-7-7--------------------------|
G|---3/5-5-5-5------------------------|---3/5-5-5-5---7--7/8--8----12-12-12--|
C|--------------0-0-0---2-2--3-3-0----|--------------------------------------|

 


[Verse 2]

 [Gtr 1 - clean, with delay]
D|---12-------------------------------|---12---------------------------------|
A|------10----------------------------|------10------------------------------|
F|------------------------------------|--------------------------------------|
C|------------------------------------|--------------------------------------|
G|------------------------------------|--------------------------------------|
C|------------------------------------|--------------------------------------|
                                                                               play all 4 bars
D|------------------------------------|---12---------------------------------| through twice
A|---17-------------------------------|------10------------------------------|
F|------14----------------------------|--------------------------------------|
C|------------------------------------|--------------------------------------|
G|------------------------------------|--------------------------------------|
C|------------------------------------|--------------------------------------|


 [Gtr 2 - clean, with delay]
D|------------------------------------|--------------------------------------|
A|------------------------------------|--------------------------------------|
F|------------------------------------|--------------------------------------|
C|--12-14h15----12--12h14--14h15p14---|---12-15-14h15p14--10---10-12---12p9--| 4 times
G|------------------------------------|--------------------------------------|
C|------------------------------------|--------------------------------------|

 


[Chorus 2 - distortion]

D|------------------------------------|--------------------------------------|
A|------------------------------------|--------------------------------------|
F|------5/7-7-7-7---------------------|---5/7-7-7-7--------------------------|
C|------5/7-7-7-7---------------------|---5/7-7-7-7--------------------------|
G|-12\--3/5-5-5-5---------------------|---3/5-5-5-5-----7--7/8--8----5-5-5---|
C|----------------0-0-0---2-2--3-3-0--|--------------------------------------|

D|------------------------------------|--------------------------------------|
A|------------------------------------|--------------------------------------|
F|---5/7-7-7-7------------------------|---5/7-7-7-7--------------------------|
C|---5/7-7-7-7------------------------|---5/7-7-7-7--------------------------|
G|---3/5-5-5-5------------------------|---3/5-5-5-5-----7--7/8--8----7-7-7---|
C|--------------0-0-0---2-2--3-3-0----|--------------------------------------|

D|------------------------------------|--------------------------------------|
A|------------------------------------|--------------------------------------|
F|------------------------------------|---5/7-7-7-7--------------------------|
C|------------------------------------|---5/7-7-7-7--------------------------|
G|---7/8-8-8-8------------------------|---3/5-5-5-5-----7--7/8--8----7-7-7---|
C|--------------0-0-0---2-2--3-3-0----|--------------------------------------|

D|------------------------------------|--------------------------------------|
A|------------------------------------|--------------------------------------|
F|---5/7-7-7-7------------------------|---5/7-7-7-7--------------------------|
C|---5/7-7-7-7------------------------|---5/7-7-7-7--------------------------|
G|---3/5-5-5-5------------------------|---3/5-5-5-5-----7--7/8--8---7-7\1----|
C|--------------0-0-0---2-2--3-3-0----|--------------------------------------|




 [Bridge - slight distortion]

D|------------------|------------------|------------------|------------------|
A|------------------|------------------|------------------|------------------|
F|------------------|------------------|------------------|------------------|
C|------------------|------------------|------------------|------------------|
G|---1--------------|---5--------------|---8--------------|---5--------------|
C|------------------|---5--------------|--/8--------------|--\5--------------|

 
 [Gtr 1 - clean, with delay]
D|---12-------------------------------|---12---------------------------------|
A|------10----------------------------|------10------------------------------|
F|------------------------------------|--------------------------------------|
C|------------------------------------|--------------------------------------|
G|------------------------------------|--------------------------------------|
C|------------------------------------|--------------------------------------|

D|------------------------------------|---12---------------------------------|
A|---17-------------------------------|------10------------------------------|
F|------14----------------------------|--------------------------------------|
C|------------------------------------|--------------------------------------|
G|------------------------------------|--------------------------------------|
C|------------------------------------|--------------------------------------|


 [Gtr 2 - clean, with delay]
D|------------------------------------|--------------------------------------|
A|------------------------------------|--------------------------------------|
F|------------------------------------|--------------------------------------|
C|--12-14h15----12--12h14--14h15p14---|---12-15-14h15p14--10---10-12---12p9--| 2 times
G|------------------------------------|--------------------------------------|
C|------------------------------------|--------------------------------------|




 [Guitar break - distortion]

      PM
D|-----------------------|-----------------|---------------|-----------------|
A|-----------------------|-----------------|---------------|-----------------|
F|-----------------------|-----------------|---------------|-----------------|
C|-----0-5\----0-0-0-----|-----0---0-0-----|-----0-0-0-----|-----7---7-5-----|
G|-----0-5\----0-0-0-----|-----0---0-0-----|-----0-0-0-----|-----7---7-5-----|
C|-----0-5\----0-0-0-----|-----0---0-0-----|-----0-0-0-----|-----7---7-5-----|

D|-----------------------|-----------------|---------------|-----------------|
A|-----------------------|-----------------|---------------|-----------------|
F|-----------------------|-----------------|---------------|-----------------|
C|---------0-0-0---------|-----0---0-0-----|-----0-0-0-----|-----7---7-5-----|
G|---------0-0-0---------|-----0---0-0-----|-----0-0-0-----|-----7---7-5-----|
C|---------0-0-0---------|-----0---0-0-----|-----0-0-0-----|-----7---7-5-----|




 [Chorus 3 - distortion]

D|------------------------------------|--------------------------------------|
A|------------------------------------|--------------------------------------|
F|------5/7-7-7-7---------------------|---5/7-7-7-7--------------------------|
C|------5/7-7-7-7---------------------|---5/7-7-7-7--------------------------|
G|-12\--3/5-5-5-5---------------------|---3/5-5-5-5-----7--7/8--8----5-5-5---|
C|-12\------------0-0-0---2-2--3-3-0--|--------------------------------------|

D|------------------------------------|--------------------------------------|
A|------------------------------------|--------------------------------------|
F|---5/7-7-7-7------------------------|---5/7-7-7-7--------------------------|
C|---5/7-7-7-7------------------------|---5/7-7-7-7--------------------------|
G|---3/5-5-5-5------------------------|---3/5-5-5-5-----7--7/8--8----7-7-7---|
C|--------------0-0-0---2-2--3-3-0----|--------------------------------------|

D|------------------------------------|--------------------------------------|
A|------------------------------------|--------------------------------------|
F|------------------------------------|---5/7-7-7-7--------------------------|
C|----------------0-0----2-2---3--0---|---5/7-7-7-7--------------------------|
G|---7/8-8-8-8----0-0----2-2---3--0---|---3/5-5-5-5-----7--7/8--8----7-7-7---|
C|----------------0-0----2-2---3--0---|--------------------------------------|

D|------------------------------------|--------------------------------------|
A|------------------------------------|--------------------------------------|
F|------------------------------------|---5/7-7-7-7--------------------------|
C|----------------0-0----2-2---3--0---|---5/7-7-7-7--------------------------|
G|---7/8-8-8-8----0-0----2-2---3--0---|---3/5-5-5-5-----7--7/8--8----7-7-7---|
C|----------------0-0----2-2---3--0---|--------------------------------------|




 [Outro - distortion]

D|------------------------------------|--------------------------------------|
A|------------------------------------|--------------------------------------|
F|---5/7-7-7-7------------------------|---5/7-7-7-7--------------------------|
C|---5/7-7-7-7----0-0----2-2---3--0---|---5/7-7-7-7--------------------------|
G|---3/5-5-5-5----0-0----2-2---3--0---|---3/5-5-5-5-----7--7/8--8----7-------|
C|----------------0-0----2-2---3--0---|--------------------------------------|

D|------------------------------------|--------------------------------------|
A|------------------------------------|--------------------------------------|
F|---5/7-7-7-7------------------------|---5/7-7-7-7--------------------------|
C|---5/7-7-7-7----0-0----2-2---3--0---|---5/7-7-7-7---------------------0----|
G|---3/5-5-5-5----0-0----2-2---3--0---|---3/5-5-5-5---7--7/8--8---5-7---5----|
C|----------------0-0----2-2---3--0---|---------------------------------0----|


 [Gtr 1 - clean, with delay]
D|---12-------------------------------|---12---------------------------------|
A|------10----------------------------|------10------------------------------|
F|------------------------------------|--------------------------------------|
C|------------------------------------|--------------------------------------|
G|------------------------------------|--------------------------------------|
C|------------------------------------|--------------------------------------|

 [Gtr 2 - clean, with delay]
D|------------------------------------|--------------------------------------|
A|------------------------------------|--------------------------------------|
F|------------------------------------|--------------------------------------|
C|--12-14h15----12--12h14--14h15p14---|---12-15-14h15p14--10---10-12---12p9--| to fade out...
G|------------------------------------|--------------------------------------|
C|------------------------------------|--------------------------------------|






************************************


| h   Hammer-on
| p   Pull-off
| /   Slide up
| \   Slide down
| PM  Palm mute


************************************

            
            
Suggest correction
Creating personal tab
Creating personal tab
You can edit any tab online and save it as your Personal.

You can edit, replace or remove any tab part or add personal notes – all changes will be seen only by you.

Personal tabs can be accessed anytime from any device, even offline.
Learn more »
Give kudos to tab author, rate the tab!
1 2 3 4 5
comments
print report bad tab
guest
You may want to rate the tab now too:
select rating
Wanna post a correction for this tab? Suggest correction