Oops, an error
Loading. Please wait.

Boy Tab

8,465 views 15 this week
no commentswrite comment
1 2 3 4 5
x 4
add to favorites
launch autoscroll
font size
0
reset
how to read this tab
guitar tuner
Autoscroll
slow
fast
+/-
esc
set tempo
stop
Help us to improve Ultimate-Guitar.com Take our survey!
×
Author
Difficulty
novice
Boy - Ra Ra Riot
feltmacer@gmail.com

This is my first tab, so the way I tabbed it and the timing may be a bit weird, and 
could be wrong. The cello/violin in the background makes it hard to hear some notes, so if 
think there is something that could be fixed please do comment, but keep it constructive.

I used Amazing Slow Downer to slow everything down, so I'm pretty sure that most of it 
accurate.

Tuning: Standard

"Thought I left my life, oh"... :31

e|--------------------------------------------------------------------------|
B|--------------------------------------------------------------------------|
G|--------------------------------------------------------------0-0-0-2-----|
D|--4-4-4-4-4-7-4-----2-2-2-2-4-2-----0-0-0-0-2-0-2-----0-0-2-2-------------|
A|--------------------------------------------------------------------------|
E|--------------------------------------------------------------------------|

e|--------------------------------------------------------------------------|
B|------------------------------------------------------------------7-7-----|
G|----------------------------------------------------------4-4-7-7-7-7-----|
D|--4-4-4-4-4-7-4-----2-2-2-2-4-2-----0-0-0-0-2-0-2-----0-0-----------------|
A|--------------------------------------------------------------------------|
E|--------------------------------------------------------------------------|

"I was a cold, cold boy" :55

e|--55520-----55520-----55220000252557--------------------------------------|
B|--33333-----33333-----33333333333333--------------------------------------|
G|--------------------------------------------------------------------------|
D|--------------------------------------------------------------------------|
A|--------------------------------------------------------------------------|
E|--------------------------------------------------------------------------| x3

On the fourth time:

e|--55520-----55520---------------------------------------------------------|
B|--33333-----33333---------------------------------------------------------|
G|--------------------------------------------------------------------------|
D|--------------------------------------------------------------------------|
A|--------------------------------------------------------------------------|
E|--------------------------------------------------------------------------|

Then the verse again:

e|--------------------------------------------------------------------------|
B|--------------------------------------------------------------------------|
G|--------------------------------------------------------------0-0-0-2-----|
D|--4-4-4-4-4-7-4-----2-2-2-2-4-2-----0-0-0-0-2-0-2-----0-0-2-2-------------|
A|--------------------------------------------------------------------------|
E|--------------------------------------------------------------------------|

e|--------------------------------------------------------------------------|
B|------------------------------------------------------------------7-7-----|
G|----------------------------------------------------------4-4-7-7-7-7-----|
D|--4-4-4-4-4-7-4-----2-2-2-2-4-2-----0-0-0-0-2-0-2-----0-0-----------------|
A|--------------------------------------------------------------------------|
E|--------------------------------------------------------------------------|

At 1:40 there's a chorus/bridge/breakdown thing

e|--------------------------------------------------------------------------|
B|--------------------------------------------------------------------------|
G|--------------------------------------------------------------------------|
D|--4---4---4---2-0-0---4---4---7---4---4---4---2----4-4-2-4-2-0-4----------|
A|--------------------------------------------------------------------------|
E|--------------------------------------------------------------------------|

e|--55520-----55520-----55220000252557--------------------------------------|
B|--33333-----33333-----33333333333333--------------------------------------|
G|--------------------------------------------------------------------------|
D|--------------------------------------------------------------------------|
A|--------------------------------------------------------------------------|
E|--------------------------------------------------------------------------| x3

On the fourth time:

e|--55520-----55520---------------------------------------------------------|
B|--33333-----33333---------------------------------------------------------|
G|--------------------------------------------------------------------------|
D|--------------------------------------------------------------------------|
A|--------------------------------------------------------------------------|
E|--------------------------------------------------------------------------|

On the second bar of bass before the solo, this is quietly played, 2:18

e|--------------------------------------------------------------------------|
B|--------------------------------------------------------------------------|
G|------4------2------------------------------------------------------------|
D|--4------4--------0---4---0---4-------------------------------------------|
A|--------------------------------------------------------------------------|
E|--------------------------------------------------------------------------|

Solo 2:23

e|-----------------5/7------------------------------------------------------|
B|----------7\5-----------7h10p7--------------------------------------------|
G|--4/7------------------------------7p6------------------------------------|
D|--------------------------------------------7---9p7-----------------------|
A|--------------------------------------------------------9-----------------|
E|--------------------------------------------------------------------------|

e|--------------------------------------------------------------------------|
B|--------------------------------------------------------------------------|
G|--------------------------------------------------11----------------------|
D|---------------------12---------------------------------------------------|
A|---9h10p9--10p9h10----------10h12p10--12p10h12----------------------------|
E|--------------------------------------------------------------------------|

e|-----------------5/7------------------------------------------------------|
B|----------7\5-----------7h10p7--------------------7-----------------------|
G|--4/7-----------------------------7p6-------------------------------------|
D|------------------------------------------7---9---------------------------|
A|--------------------------------------------------------------------------|
E|--------------------------------------------------------------------------|


e|--------------------------------------------------------------------------|
B|--------------------------------------------------------------------------|
G|-----------------------------------------------11-11-11-------------------|
D|--------------------------12----------------------------------------------|
A|--10p9h10p9h10p9h10p9------------10-12-10-12------------------------------|
E|--------------------------------------------------------------------------|

2:39

e|--55520-----55520-----55220000252557--------------------------------------|
B|--33333-----33333-----33333333333333--------------------------------------|
G|--------------------------------------------------------------------------|
D|--------------------------------------------------------------------------|
A|--------------------------------------------------------------------------|
E|--------------------------------------------------------------------------| x3

On the fourth time:

e|--55520-----55520---------------------------------------------------------|
B|--33333-----33333---------------------------------------------------------|
G|--------------------------------------------------------------------------|
D|--------------------------------------------------------------------------|
A|--------------------------------------------------------------------------|
E|--------------------------------------------------------------------------|


************************************

| /   slide up
| \   slide down
| h   hammer-on
| p   pull-off
| ~   vibrato
| +   harmonic
| x   Mute note
| b   Bend
| pb  Pre-bend
| br  Bend release
| pbr Pre-bend release
| brb Bend release bend

************************************
Suggest correction
comments
print report bad tab
guest
You may want to rate the tab now too:
select rating
Wanna post a correction for this tab? Suggest correction