Oops, an error
Loading. Please wait.

Challa Tab

8,523 views 15 this week
1 commentread comment
1 2 3 4 5
please rate
add to favorites
launch autoscroll
font size
0
reset
how to read this tab
guitar tuner
Autoscroll
slow
fast
+/-
esc
set tempo
stop
Help us to improve Ultimate-Guitar.com Take our survey!
×
Author
Difficulty
novice
Tabs by imVirus (alam)

e----------------------------------------------------------|
B----------------------------------------------------------|
G--------5------------5------------------------------------|
D----5-7---7-7-7--5-7---7-7-7---9---3-5-3------------------|
A--7---------------------------------------7-7-------------|
E----------------------------------------------------------|

e----------------------------------------------------------|
B----------------------------------------------------------|
G--------5------------5------------------------------------|
D----7-5-7---7-7-7--5-7---7-7-7---9---3-5-3----------------|
A--7---------------------------------------7-7-------------|
E----------------------------------------------------------|
Suggest correction
Give kudos to tab author, rate the tab!
1 2 3 4 5
comments
print report bad tab
1 comment total.
0 reply
patilsnd 10 wrote on August 28 2013, 08:51 am

in first variation
9---5-3-5-------
-----------7-7--

guest
You may want to rate the tab now too:
select rating
Please do not post tabs as comments. Select "correction" instead!