Oops, an error
Loading. Please wait.

Schattenlaeufer Tab

411 views 1 this week
1 commentread comment
1 2 3 4 5
worth learning
x 2
add to favorites
launch autoscroll
font size
0
reset
how to read this tab
guitar tuner
Tab Pro tools
  • play this tab
  • loop segment
  • change instrument
  • show fretboard
  • metronome
Autoscroll
slow
fast
+/-
esc
set tempo
stop
Difficulty
novice
Ist nicht ganz korrekt, aber so spiel ich's.
Viel Freude damit :D


Track 1
     Q     Q     Q       E   E   Q     Q        H         E   E   
E||-------------------|---------------------|--------------------|
B||-------------------|---------------10----|--------------------|
G||-------11----11----|--9--11--12----------|--11--------12--11--|
D||--9----------------|---------------------|--------------------|
A||-------------------|---------------------|--------------------|
E||-------------------|---------------------|--------------------|


  E   E   Q     E   E      Q     Q    Q                  
-----------------------|-------------------|-----------||
-----------------------|-------------------|-----------||
--9--------------------|--------11---------|-----------||
-----12--11----11--11--|--11----------9----|-----------||
-----------------------|-------------------|-----------||
-----------------------|-------------------|-----------||




Duration Legend
---------------
W - whole
H - half
Q - quarter
E - 8th
S - 16th
T - 32nd
X - 64th
. - note dotted
|-n-|  - n-tuplets


Tablature Legend
----------------
L - tied note
x - dead note
g - grace note
(n) - ghost note
> - accentuded note
NH - natural harmonic
AH - artificial harmonic
TH - tapped harmonic
SH - semi harmonic
PH - pitch harmonic
h - hammer on
p - pull off
b - bend
br - bendRelease
pb - preBend
pbr - preBendRelease
brb - bendReleaseBend
\n/ - tremolo bar dip
\n - tremolo bar dive
-/n - tremolo bar Release up
/n\ - tremolo bar inverted dip
/n - tremolo bar return
-\n - tremolo bar Release down
S - shift slide
s - legato slide
/ -  slide into from below or out of upwards
\ -  slide into from above or out of downwards
~ - vibrato
W - wide vibrato
tr - trill
TP - tremolo picking
T - tapping
S - slap
P - pop
< - fade in
^ - brush up
v - brush down
comments
We did not receive enough feedback on this tab! Please rate:
print report bad tab
1 2 3 4 5
1 comment total.
+1 reply
Feuerfinger wrote on June 25 2011, 09:25 am

so, endlich auch angemeldet...

die 15te note, bzw. die letzte achtelnote sollte ein "hammer on" auf bund 12 sein...

I want to post or [tab]
guest
You may want to rate the tab now too:
select rating
Please do not post tabs as comments. Select "correction" instead!