Oops, an error
Loading. Please wait.

As Wings Develop Bass Tab

184 views 1 this week
no commentswrite comment
1 2 3 4 5
please rate
add to favorites
launch autoscroll
font size
0
reset
guitar tuner
Autoscroll
slow
fast
+/-
esc
set tempo
stop
Help us to improve Ultimate-Guitar.com Take our survey!
×
Difficulty
novice
“As Wings Develop” by Race the Sun

Tabbed by Greg Mitchell(aim: xxvrufiovxx)

Chorus(Also the Intro):
G|-------------------------------|
D|-------------------------------|
A|---------------3-3-33-1-11-111-| x4
E|-44-44-444-444-----------------|

Verse:
G|---------------------------------|
D|---------------------------------|
A|-----------------33-33-11-11-1-1-| x4
E|-44-44-44-44-4-4-----------------|

Pre-Chorus:
G|-------------------------------------------------------------|
D|-------------------------------------------------------------|
A|-3-3-33-6-66-666----------------3-3-33-1-11-111--------------| x2
E|-----------------4-4-44-444-444------------------4-44-444-44-|

Play Verse x4
Play the Pre Chorus x2, but play the last notes like this:
G|-----------------------------|
D|-----------------------------|
A|-----------------------------|
E|-4-444-3-33-33-4-4-44-6-6666-|

Play Chorus x4
Play Verse x4
Play Pre-Chorus x2(With the alternate notes at end)
Play Chorus x4

Bridge:
G|-----------------------------|
D|-----------------------------|
A|-6-66-6-66-666---------------| x3
E|---------------3-33-4-44-444-|

Bridge pt.2:
G|-----------------------|
D|-----------------------|
A|-----------------------|
E|-6-666-6666-4-44-44444-|

Play Bridge x3
Play Bridge pt.2 x1

Play Chorus x4

And you’re done.  Easy, eh?

P.S.: The first note in the bridge won’t sound perfect because Race The Sun tunes a 1/2
down.  It is the same note, just a different octave.
Suggest correction
What's this?
You can suggest a correction to this tab. Community and Mods will review your correction and vote to approve or reject it.
comments
We did not receive enough feedback on this tab! Please rate:
print report bad tab
1 2 3 4 5
guest
You may want to rate the tab now too:
select rating
Please do not post tabs as comments. Select "correction" instead!