Oops, an error
Loading. Please wait.

My Heart The Compasspoints West Bass Tab

193 views 1 this week
no commentswrite comment
1 2 3 4 5
3 more votes to show rating
add to favorites
launch autoscroll
font size
0
reset
guitar tuner
Autoscroll
slow
fast
+/-
esc
set tempo
stop
Help us to improve Ultimate-Guitar.com Take our survey!
×
Difficulty
novice
“My Heart, The Compass(Points West)” - Race the Sun

Tabbed by Greg Mitchell (aim: xxvrufiovxx)


Intro:
G|----------------------------------|
D|----------------------------------|
A|---------6-66-66------------------| x4
E|-4-44-44---------6-66-66-6-66-8-6-|

Intro pt.2:
G|---------------------|
D|---------------------|
A|---------------------|
E|-1-11-111-111-1-3-4~-|

Verse:
G|----------------------------------------------------|
D|----------------------------------------------------|
A|-3-333333333333-3-6-66666---------------------------| x2
E|--------------------------6-66666-4--4--4--44/6-666-|

Pre-chorus pt.1(“Farewell...”):
G|-------------------------------|
D|-------------------------------|
A|-------------------------------| x2
E|-3-3-33-4-4-44-6-66-66-6-66-66-|

Pre-chorus pt.2:
G|-----------------------------------|
D|-----------------------------------|
A|-----------------------8-6-5h6p5---|
E|-3-3-33-4-4-44-6-66-66-----------6-|

Pre-chorus pt.3:
G|----------------|
D|----------------|
A|----------------|
E|-3-33-4-4-44-6~-|

Chorus pt.1:
G|---------------------------------|
D|---------------------------------|
A|---------6-66-66---------6p5-6-5-|
E|-4-44-44---------6-66-66---------|

Chorus pt.2:
G|----------------------------------|
D|----------------------------------|
A|---------6-66-66------------------|
E|-4-44-44---------6-66-33-6-66-333-|

Play Chorus pt.1 x1
Play Chorus pt.2 x1
Play Intro pt.2 x1

Play Verse(with slight change in beginning) x2
Play Pre-chorus pt.1 x2
Play Pre-chorus pt.2 x1
Play Pre-chorus pt.3 x1
Play Chorus pt.1 x1
Play Chorus pt.2 x1
Play Chorus pt.1 x1
Play chorus pt.2 x1

Bridge pt.1:
G|----------------------------------|
D|----------------------------------|
A|----------------------------------| x2(Second time, ring G#)
E|-1111111111111111-444444444444444-|
     (^All Ones)

Rest

Bridge pt.2(Won’t sound perfect because this tab is in standard):
G|------------------------------|
D|------------------------------|
A|----------666-666-------------| x2
E|-44444444---------666-666-666-|

Bridge pt.3:
G|---------8-7-8-7-|
D|-----------------|
A|----rest---------|
E|-44--------------|

Play Chorus pt.2 x1
Play Chorus pt.1 x1
Play Chorus pt.2 x1
Play Intro pt.1 x2 (Without the C)
Play Chorus pt.1 x1
Play Chorus pt.2 x1
Play Intro pt.2 x1
Suggest correction
Give kudos to tab author, rate the tab!
1 2 3 4 5
comments
print report bad tab
guest
You may want to rate the tab now too:
select rating
Wanna post a correction for this tab? Suggest correction