Oops, an error
Loading. Please wait.

Vanity Score Bass Tab

253 views 1 this week
no commentswrite comment
1 2 3 4 5
3 more votes to show rating
add to favorites
launch autoscroll
font size
0
reset
guitar tuner
Autoscroll
slow
fast
+/-
esc
set tempo
stop
Help us to improve Ultimate-Guitar.com Take our survey!
×
“Vanity Score” by Race the Sun

Tabbed by Greg Mitchell (AIM: xxvrufiovxx)

Intro:
G|--------------------   ----------------|
D|--------------------   ----------------|
A|-1-1-1-2~--6-6-6-4~-x2 -4444444444-1-1-|
E|--------------------   ----------------|

Intro pt.2:
G|---------------------------------|
D|---------------------------------|
A|-22222-22222-222-66666-44444-444-| x3
E|---------------------------------|

Intro pt3.:
G|--------------------------------------|
D|--------------------------------------|
A|-1-1-1-2-22222-222-66666-44444-444-2~-|
E|--------------------------------------|

Verse(“Perfection...”):
G|------------------------------------------|
D|------------------------------------------|
A|-6-66---6-66--4-44-4h6-2-22---2-22-2-22-2-| x2
E|------------------------------------------|

Chorus(“Chalkline’s Traced...”):
G|----------------------------------    -----------------|
D|----------------------------------    -----------------|
A|-4-4-44-6-66-4h6-2-22-222-222-222- x4 -4-44-444-444-44-|
E|----------------------------------    -----------------|

Chorus pt.2(“They’re waiting, they’re ready...):
G|---------------------    ---------------------------------|
D|--------------3h4-4--    ---------------------------------|
A|-66-4-6-4-6-4-------- x2 -2-22-222----------4-44-44444444-|
E|---------------------    -----------2-22-222--------------|

Play that whole part two times, then play the last part of it once more, but just ring 
the C# at the end.

Verse x4
Play the whole chorus again.

“Breakdown”:
G|-----------------|
D|-------44-44-444-|
A|-66-44-----------| x3
E|-----------------|

Play the whole chorus again, but play the first part of pt.2 again (when you’re done 
the whole chorus) four times to end it.

The link to RTS' official site is http://www.racethesunrock.com/
Suggest correction
Give kudos to tab author, rate the tab!
1 2 3 4 5
comments
print report bad tab
guest
You may want to rate the tab now too:
select rating
Wanna post a correction for this tab? Suggest correction