Oops, an error
Loading. Please wait.

Hail Blood Honour Bass Tab

330 views 1 this week
no commentswrite comment
1 2 3 4 5
please rate
add to favorites
launch autoscroll
font size
0
reset
guitar tuner
Autoscroll
slow
fast
+/-
esc
set tempo
stop
Help us to improve Ultimate-Guitar.com Take our survey!
×
Tab made by 6METAL6BASSIST6

Email: Petergriffinav@gmail.com

||--------------------------------------|
||--------------------------------------|
||-------5-5---5-5-------------5-5---5-5|
||0----3-----3-----0---------3-----3----|

||----------------------------|
||----------------------------| x2
||-------------------5-5---5-5|
||0-00000000000000-3-----3----|

||-----------------------------|
||-----------------------------| x4
||--------------------------5--|
||0-00000000000000-3-333333---5|

||----------------------------------------------------------------------|
||----------------------------------------------------------------------|
||---------3-333333----------5-555555----------3-333333----------5--5--5|
||0-000000----------3-333333----------0-000000-----------3-3-3-3--------|

||----------------------------------------------------------------------|
||----------------------------------------------------------------------| 
||---------3-333333----------5-555555----------3-333333----------5--5--5|
||0-000000----------3-333333----------0-000000----------3-333333--------|

||----------------------------|
||----------------------------| x2
||-------------------5-5---5-5|
||0-00000000000000-3-----3----|

||-----------------------------|
||-----------------------------| x4
||--------------------------5--|
||0-00000000000000-3-333333---5|

||----------------------------------------------------------------------|
||----------------------------------------------------------------------|
||---------3-333333----------5-555555----------3-333333----------5--5--5|
||0-000000----------3-333333----------0-000000-----------3-3-3-3--------|

||----------------------------------------------------------------------|
||----------------------------------------------------------------------|
||---------3-333333----------5-555555----------3-333333----------5--5--5|
||0-000000----------3-333333----------0-000000----------3-333333--------|

||-----------------------------------------------------|
||-----------------------------------------------------| 
||---------5---5-3--------------------5---5-3----------|
||0-----00-----------3-2-3-2-0-----00-----------3-2-3-2|

||---------------------------------------------------------------|
||---------------------------------------------------------------|
||--------------------------------5-5-5-5-5-5-5-5-3-3-3-3--------|
||0-0-0-0-0-0-0-0-0-0-0-0-0-0-0-0-------------------------3-2-3-2|

||-------------------------------------------------|
||-------------------------------------------------|
||--------------------------------5-5-5-5-5-5-5-5-3|
||0-0-0-0-0-0-0-0-0-0-0-0-0-0-0-0------------------|

||-------|
||-------|
||-------|
||3-2-3-2|

||----------------------------------------------------------------------|
||----------------------------------------------------------------------|
||---------3-333333----------5-555555----------3-333333----------5--5--5|
||0-000000----------3-333333----------0-000000-----------3-3-3-3--------|

||----------------------------------------------------------------------|
||----------------------------------------------------------------------|
||---------3-333333----------5-555555----------3-333333----------5--5--5|
||0-000000----------3-333333----------0-000000----------3-333333--------|

||----------------------------|
||----------------------------| x2
||-------------------5-5---5-5|
||0-00000000000000-3-----3----|

||--------------------------------------------------------------|
||--------------------------------------------------------------|
||--------------------5-5-5---------------------5-5-5-----------|
||0-0-0-0-0-0-0-0-3---------0-0-0-0-0-0-0-0-3---------0--------0|
Suggest correction
Give kudos to tab author, rate the tab!
1 2 3 4 5
comments
print report bad tab
guest
You may want to rate the tab now too:
select rating
Please do not post tabs as comments. Select "correction" instead!