Oops, an error
Loading. Please wait.

Scarified Tab

version 2
version 2

Whole song

66,753 views 15 this week
8 commentsread comments
1 2 3 4 5
x 18
add to favorites
launch autoscroll
font size
0
reset
how to read this tab
guitar tuner
Autoscroll
slow
fast
+/-
esc
set tempo
stop
Help us to improve Ultimate-Guitar.com Take our survey!
×
Difficulty
advanced
|-----------------------------------|------------------------------|
|-----------------------------------|------------------------------|
|*----------------------------------|-------------------------6~---|
|*----------------------------------|-------------------6-7-9------|
|-----------------------------4--4--|-------------5-7-9------------|
|---2-2-2-2-2-2-2-2-2-2-4-5-7----2--|----2--5-7-9------------------|


----------------------------------|-------------------------------|
----------------------------------|-------------------------------|
----------------------------------|-------7-6-4-------------------|
----------------------------------|-------------7-6-4-------------|
----------------------------4-----|-------------------7-5-4-------|
--2-2-2-2-2-2-2-2-2-2-4-5-7----2--|----2--------------------7-5-4-|

 
	

----------------------------------|------------------------------|
----------------------------------|------------------------------|
----------------------------------|-------------------------6~---|
----------------------------------|-------------------6-7-9------|
----------------------------4-----|-------------5-7-9------------|
--2-2-2-2-2-2-2-2-2-2-4-5-7----2--|----2--5-7-9------------------|


----------------------------------|-------------------------------||
----------------------------------|-------------------------------||
----------------------------------|---------------------7-9/-----*||
----------------------------------|--------------7-9-11---9/-----*||
----------------------------4-----|-------7-9-11------------------||
--2-2-2-2-2-2-2-2-2-2-4-5-7----2--|----2--------------------------||

 

 
	

--21-17-14----------14-17-21-17-14----------------|
-----------15----15----------------16-------------|
--------------14----------------------18-14-------|
--------------------------------------------16----|
-----------------------------------------------18-|
--------------------------------------------------|

--------------16-19p-16-----19p-16p-13-----------------------13h-16h-|
-----------17-----------17-------------------------------------------|
--------16-----------------------------19p-16p-13-13h-16h-19---------|
-----18--------------------------------------------------------------|
--19-----------------------------------------------------------------|
---------------------------------------------------------------------|

W H. Q
--17~----------------|--L------------17S----|
---------------------|----------------------|
---------------------|----------------------|
---------------------|----------------------|
---------------------|----------------------|
---------------------|----------------------|

--9---------9----14-9-------9-10-9-14-9----|
----10-9-10---10------10-12-------------10-|
-------------------------------------------|
-------------------------------------------|
-------------------------------------------|
-------------------------------------------|


--14----------14----19-14-------14-15-14-19-14----|
-----15-14-15----15-------15-17----------------15-|
--------------------------------------------------|
--------------------------------------------------|
--------------------------------------------------|
--------------------------------------------------|

 
--------------------12----16-14-16-12----12-------|
--12----------12-------12-------------12----12----|
-----13-11-13----13----------------------------13-|
--------------------------------------------------|
--------------------------------------------------|
--------------------------------------------------|
	--------------------17----21-19-21-17----17-------|
--17----------17-------17-------------17----17----|
-----18-16-18----18----------------------------18-|
--------------------------------------------------|
--------------------------------------------------|
--------------------------------------------------|

 
-------------------10----14-12-14-10----10-------|
--10---------10-------10-------------10----10----|
-----11-9-11----11----------------------------11-|
-------------------------------------------------|
-------------------------------------------------|
-------------------------------------------------|
	--------------------14----19-17-19-14----14-------|
--15----------15-------15-------------15----15----|
-----16-14-16----16----------------------------16-|
--------------------------------------------------|
--------------------------------------------------|
--------------------------------------------------|

 
-----------------9---13-11-13-9---9------|
--9---------9------9------------9---9----|
----10-8-10---10----------------------10-|
-----------------------------------------|
-----------------------------------------|
-----------------------------------------| 	--9---------9----14-9-17-16-14----------------|
----10-9-10---10---------------17-16-14-------|
----------------------------------------16-14-|
----------------------------------------------|
----------------------------------------------|
----------------------------------------------|

 
-----------------9---13-11-13-9---9------|
--9---------9------9------------9---9----|
----10-8-10---10----------------------10-|
-----------------------------------------|
-----------------------------------------|
-----------------------------------------|
	

                      |--3--| |--3--|

--9---------9----14-9-17-16-14----------17S-----|
----10-9-10---10---------------17-16-14---------|
------------------------------------------------|
------------------------------------------------|
------------------------------------------------|
------------------------------------------------|

 

 
	




  T          T          T          T          T          T          T
  |---3---|  |---3---|  |---3---|  |---3---|  |---3---|  |---3---|  |---3---|
--------------------------------------------------------------------------------
--------------------------------------------------------------------------------
------------------------19p-16h-18-19p-18p-16-----------------------18p-14h-16--
--19p-16h-18-19p-18p-16-----------------------18p-14h-16-18p-16p-14-------------
--------------------------------------------------------------------------------
--------------------------------------------------------------------------------

  T          T          T          T          T          T           T
  |---3---|  |---3---|  |---3---|  |---3---|  |---3---|  |---3---|
-------------------------------------------------------------------------------|
-------------------------------------------------------------------------------|
------------------------16p-13h-14-16p-13h-14-16p-14p-13-18p-16p-14-18p-16b~---|
--16p-13h-14-16p-14p-13--------------------------------------------------------|
-------------------------------------------------------------------------------|
-------------------------------------------------------------------------------|
Suggest correction
comments
print report bad tab
8 comments total. Showing first comments.
0 reply
thefoldarsoldar 86 Jun 05, 2007 06:03 AM

good, but fix the lines please!

0 reply
rhcpfan27 117 Jun 17, 2007 09:50 PM

if your looking for the one on youtube it goes

--14----------------------14------16----------------------16------------
----15----------15------15--15------17----------17------17--17----17b19-
------14------14------14------14------16------16------16------16--------
--------16--16------16----------16------18--18------18----------18------
----------17------17----------------------19------19--------------------
------------------------------------------------------------------------

0 reply
rhcpfan27 117 Jun 17, 2007 09:51 PM

the first part at least

guest
You may want to rate the tab now too:
select rating
Wanna post a correction for this tab? Suggest correction