Oops, an error
Loading. Please wait.

Black Cherry Tab

373 views 1 this week
1 commentread comment
1 2 3 4 5
3 more votes to show rating
add to favorites
launch autoscroll
font size
0
reset
how to read this tab
guitar tuner
Autoscroll
slow
fast
+/-
esc
set tempo
stop
Help us to improve Ultimate-Guitar.com Take our survey!
×
Rachel Stamp - Black Cherry Intro


By John O'Malley (original_prankster12@hotmail.com)


e|--------------------------------------12-12-12-12-12-12-12-12------|
B|--------------------------------------12-12-12-12-12-12-12-12------|
G|-------------------------------------------------------------------|
D|-------------------------------------------------------------------|
A|-------------------------------------------------------------------|
E|---0-0-3-0---5-6-7--5-6-7-7--0-0-3-0-------------------------------|
Suggest correction
Give kudos to tab author, rate the tab!
1 2 3 4 5
comments
print report bad tab
1 comment total.
0 reply
getcha_grooveon 200 Sep 24, 2002 12:00 AM

it goes like this

e|--------------------------|
B|--------------------------|
G|--------------------------|
D|-0-0-3-0-xx-34530-0-3-----|
A|-0-0-3-0-xx-34530-0-3-----|
D|-0-0-3-0-xx-34530-0-3-----|

e|--------------------------|
B|--------------------------|
G|-------19-19-19-19-19-19/-|
D|-0-3-0--x--x--x--x--x--x/-|
A|-0-3-0-17-17-17-17-17-17/-|
E|-0-3-0--------------------|

i worked it ages ago, and its the best riff ever!!

guest
You may want to rate the tab now too:
select rating
Wanna post a correction for this tab? Suggest correction