Oops, an error
Loading. Please wait.

Always Gold Tab

version 1
version 1

Intro

Whole song

11,565 views 9 this week
3 commentsread comments
1 2 3 4 5
please rate
add to favorites
launch autoscroll
font size
0
reset
how to read this tab
guitar tuner
Autoscroll
slow
fast
+/-
esc
set tempo
stop
Help us to improve Ultimate-Guitar.com Take our survey!
×
Author
Difficulty
intermediate
-----------------------------------------------------------------------------
                             Always Gold - Radical Faces
-----------------------------------------------------------------------------
Tabbed by: aes37
E-mail: august_smith37@ymail.com

Tuning: Standard, Capo-1

Hey guys! I love the fingerpicking intro to this song, but I couldn't find a tab 
for it. So here it is! (This is my first tab, so I hope it's not too bad)
Please e-mail me any corrections. Enjoy!

e|----------------------------------------x---------------------------------|
B|----------------------------------------1---------------------------------|
G|-2-----0-------0-------------------0----2---2h4---------------------------|
D|---3-----3---2---2---2p0---0---------0--2-2-------------------------------|
A|-----0-----0-------3-----3-----0h2------x---------------------------------|
E|-----------------------------3----------x---------------------------------|

e|----------------------------------------x---------------------------------|
B|----------------------------------------1---------------------------------|
G|-2-----0-------0-------------------0----0---------------------------------|
D|---3-----3---2---2---2p0---0---------0--2---------------------------------|
A|-----0-----0-------3-----3-----0h2------3---------------------------------|
E|-----------------------------3----------x---------------------------------|

(2x)
Suggest correction
What's this?
You can suggest a correction to this tab. Community and Mods will review your correction and vote to approve or reject it.
comments
We did not receive enough feedback on this tab! Please rate:
print report bad tab
1 2 3 4 5
3 comments total.
+3 reply
pwandro 60 wrote on April 14 2013, 02:07 am

After watching him play it live and acoustic I like playing it like this.

e|-----------------------------------------x-----------------------|
B|-----------------------------------------------------------------|
G|-2-----0-------0-------------------0-----2-2-----2h4-------------|
D|---3-----3---2---2---2p0---0----------0--2---2--------0----------|
A|-----3-----3-------3-----3-----0h2--0----0----- 0--------0-------|
E|-----------------------------3-----------------------------------|

e|-----------------------------------------x-----------------------|
B|-----------------------------------------------------------------|
G|-2-----0-------0-------------------0-----0-----------------------|
D|---3-----3---2---2---2p0---0----------0--2-----------------------|
A|-----3-----3-------3-----3-----0h2--0----3-----------------------|
E|-----------------------------3-----------------------------------|

0 reply
Danowa 496 wrote on July 4 2013, 10:18 pm

pwandro is infact stop on. Ben aka Radical Race explains how to play this song in his tutorial youtube(dot)com/watch?v=9FbCMqenXKQ

0 reply
Asbjof 21 wrote on June 7 2016, 04:30 pm

e|-----------------------------------------------------------------|
B|-----------------------------------------------------------------|
G|-2-----0-----0-0-------------------0-----2-2-----2h4----0--------|
D|---3-----3---2---2---2p0---0---------0---2---2--------2----------|
A|-----3-----3-3-----3-----3-----0h2-----2-0-----0-----------------|
E|-----------------------------3-----------------------------------|

e|-----------------------------------------------------------------|
B|-----------------------------------------------------------------|
G|-2-----0-----0-0-------------------0-----0-0---------0-----------|
D|---3-----3---2---2---2p0---0---------0---2---2---2h3---3---------|
A|-----3-----3-3-----3-----3-----0h2-----2-3-----3-----------------|
E|-----------------------------3-----------------------------------|

This is what he plays in the tutorial that was commented above, i think.

guest
You may want to rate the tab now too:
select rating
Please do not post tabs as comments. Select "correction" instead!