Oops, an error
Loading. Please wait.

Always Gold intro tab

version 3
version 3

Intro

  • Was searching for an intro to the VERY beginning o... Show more

Whole song

79 views 15 this week
no commentswrite comment
1 2 3 4 5
3 more votes to show rating
add to favorites
×
Save as Personal and add changes to this tab that will be seen only by you. Learn more ›
×
You can save this tab as Personal to edit and correct it or add notes. All changes will be seen only by you. Learn more »
launch autoscroll
font size
0
reset
how to read this tab
guitar tuner
edit
Autoscroll
slow
fast
+/-
esc
set tempo
stop
Author
Difficulty
About this tab version
Was searching for an intro to the VERY beginning of this song (the piano portion), but could not find one. So here is the basic structure to it. It's my first tab and a very simple one, geared towards beginners. Technically, there is a capo on the first fret, but for the sake of simplicity, it was left off. Was this info helpful? Yes No
If you have any questions or comments, feel free to email me at kevingarts@gmail.com

[Intro]
e|--------------------------------------------------------------------------------------------------------|
B|--------------------------------------------------------------------------------------------------------|
G|-------------3------------------------------------------------3-----------------------------------------|
D|-----3---6------6---3------3---------------6---3------3---6-------6---3------3--------------------------|
A|--------------------------------6---4---6-----------------------------------------6---4---6---4\3/4-----|
E|--------------------------------------------------------------------------------------------------------|

e|----------------------------------------------------------------------------------------------------------|
B|-------------------------------------6--------------------------------------------------------------------|
G|----------3---5---6----------6---8-------8---6\5/6--------------------------------------------------------|
D|--3---6---------------6---------------------------------3-----------------------------------3-------------|
A|------------------------------------------------------------6---4---1---4---4-------4---6-------6---4\3/4-|
E|----------------------------------------------------------------------------------------------------------|

e|-----------------------------------------------------------------------------------------|
B|-----------------------------------------------------------------------------------------|
G|-----------------------------------------------------------------------------------------|
D|----3------------------------------------------------------------------------------------|
A|--------6---4---1---4---4------4h6p4---3------1---3---4----------------------------------|
E|-----------------------------------------------------------------------------------------|
 
************************************

| h   Hammer-on
| p   Pull-off
| /   Slide up
| \   Slide down

************************************

            
            
Suggest correction
Creating personal tab
Creating personal tab
You can edit any tab online and save it as your Personal.

You can edit, replace or remove any tab part or add personal notes – all changes will be seen only by you.

Personal tabs can be accessed anytime from any device, even offline.
Learn more »
Give kudos to tab author, rate the tab!
1 2 3 4 5
comments
print report bad tab
guest
You may want to rate the tab now too:
select rating
Wanna post a correction for this tab? Suggest correction