Oops, an error
Loading. Please wait.

Burning Bridges Chords

1,582 views 1 this week
no commentswrite comment
1 2 3 4 5
2 more votes to show rating
add to favorites
launch autoscroll
font size
0
reset
transpose
0
reset
simplify chords
display chords
guitar tuner
Autoscroll
slow
fast
+/-
esc
set tempo
stop
Help us to improve Ultimate-Guitar.com Take our survey!
×
Author
Capo
1st fret
BURNING BRIDGES - RADICAL FACE

Tabbed by Sam Wallis (sam_8orbetter@hotmail.co.uk)

CAPO 1ST

e|--------2-0-2-3----------3-2-0------------------------2-0-------0-----------------|
B|-----------------------3---------------2-0-2-3----------------0-------------------|
G|-----2---------------0------------------------------2-------2---------------------|
D|--0----------------------------------2-----------0--------------------------------|
A|----------------------------------0-----------------------4-----------------------|
E|------------------3---------------------------------------------------------------|

e|-----------2-5-0----------5-3-2-0------------------3-3-3-3-2-0--------------------|
B|--------0--------3-------------------------2-0-2-3--------------------------------|
G|------------------------0---------------------------------------------------------|
D|-----4---------------------------------2------------------------------------------|
A|--2----------------------------------0--------------------------------------------|
E|----------------------3-----------------------------------------------------------|

D              G
Cut my head on broken progress
A                  D        D/C#   Bm
Cut my hands while building castle walls
       G                A
Nobody dies before they sleep

So fluff your pillow baby
D                   G
Squeeky wheels with abject ideals
A            D         D/C#
welter do so headaches do us all
Bm     G                    A7
nobody tries they all just sink

A                 G          D
the cops tore the playground down
A                       G       D
the children watch from tops of trees
A             G         D
no ones gonna save them now
Bm            G        A               D
so they'll go home and find a place to sleep

D                  G
spend the weekdays burning bridges
A                  D        D/C#     Bm
spent the weekends watching all them fall
       G                 A
nobody cares unless it's free

so hide your wallet baby
D                  G
spineless saviours heartless lovers
A              D     D/C#      Bm
souless jokers never last for long
      G                A7
nobody wins until they bleed

A                       G      D   Dsus2
there's cracks in their smiles now
A                 G        D   Dsus2
as they wont ever leave us be
A             G        D
nothing gonna hurts us now
 Bm           G             A           D
so we'll just wait them out until we're free

D                  G
i'm not scared and i'm not worried
A              D       D/C#       Bm
nothing really bugs me much these days
            G                    A7
i've got my home i've got what i need
Suggest correction
Give kudos to tab author, rate the tab!
1 2 3 4 5
comments
print report bad tab
guest
You may want to rate the tab now too:
select rating
Wanna post a correction for this tab? Suggest correction