Oops, an error
Loading. Please wait.

Ghost Towns tab

version 2
version 2

Whole song

  • Based on a tutorial by Ben Cooper himself.
34 views 6 this week
no commentswrite comment
1 2 3 4 5
3 more votes to show rating
add to favorites
×
Save as Personal and add changes to this tab that will be seen only by you. Learn more ›
×
You can save this tab as Personal to edit and correct it or add notes. All changes will be seen only by you. Learn more »
launch autoscroll
font size
0
reset
how to read this tab
guitar tuner
edit
Autoscroll
slow
fast
+/-
esc
set tempo
stop
About this tab version
Based on a tutorial by Ben Cooper himself. Was this info helpful? Yes No
This is a tab based on this tutorial on youtube: https://www.youtube.com/watch?v=XQxueRP2Zao
by Ben Cooper (Radical Face) himself. It'd be pretty safe to say that this tab is quite accurate.

[Chorus chords]
Em:   02200x
Em7:  02203x
C:    x35x5x
G:    32003x
D/F#: 2x023x  
D:    xx023x
D7:   xx021x

[Intro]
   Em
e|---------------------------------------------------|
B|---------------------------------------------------|
G|-----------0-----------0-----------0-----------0---|
D|-----2--2--------2--2--------2--2--------2--2------|
A|--------2-----------2-----------2-----------2------|
E|--0-----------0-----------0-----------0------------|
        
                                                          (x4)
e|---------------------------------------------------|
B|-----------------------------------1-----------0---|
G|-----------0-----------0---------------------------|
D|-----2--2--------2--2--------2--2--------2--2------|
A|--3-----3-----3-----3-----3-----3-----3-----3------|
E|---------------------------------------------------|

[Verse]
   Em
e|---------------------------------------------------|
B|---------------------------------------------------|
G|-----------0-----------0-----------0-----------0---|
D|-----2--2--------2--2--------2--2--------2--2------|
A|--------2-----------2-----------2-----------2------|
E|--0-----------0-----------0-----------0------------|
        
   C                                                            (x3)
e|---------------------------------------------------|
B|-----------------------------------1-----------0---|
G|-----------0-----------0---------------------------|
D|-----2--2--------2--2--------2--2--------2--2------|
A|--3-----3-----3-----3-----3-----3-----3-----3------|
E|---------------------------------------------------|

   Em
e|---------------------------------------------------|
B|---------------------------------------------------|
G|-----------0-----------0-----------0-----------0---|          (x1)
D|-----2--2--------2--2--------2--2--------2--2------|
A|--------2-----------2-----------2-----------2------|  
E|--0-----------0-----------0-----------0------------|

[Bridge]
   C
e|---------------------------------------------------|
B|---------------------------------------------------|
G|-----------0-----------0-----------0-----------0---|
D|-----2--2--------2--2--------2--2--------2--2------|
A|--3-----3-----3-----3-----3-----3-----2-----2------|
E|---------------------------------------------------|
..be back                'cause all           My

    Asus2
e|---------------------------------------------------|
B|-----------0----------(0)----------0-----------0---|
G|-----2--2--------2--2--------2--2--------2--2------|  Note: in this case, the note in the brackets on the B
D|--------2-----------2--2--------2-----------2------|  string is sometimes played instead of the second fret
A|--0-----------0-----------0-----------0------------|  on the D string, pick one, it's your choice.
E|---------------------------------------------------|  Feel free to play them interchangably.
    Life                        is wrapped up in       to-

    Em
e|---------------------------------------------------|
B|-----------0-----------0-----------0-----------0---|
G|-----------------------------0--0--------0--0------|
D|-----2--2--------2--2-----------0-----------0------|
A|--------2-----------2-----------x-----------x------|
E|--0-----------0-----------3-----------3------------|
   -day                         no    past or   future 

    C                                 
e|---------------------------------------------------|
B|-----------1-----------1-----------1-----------1---|
G|---------------------------------------------------|
D|-----2--2--------2--2--------2--2--------2--2------|
A|--3-----3-----3-----3-----3-----3-----2-----2------|
E|---------------------------------------------------|
   here                    if I find my       name's   no 

    Am                      Asus2
e|---------------------------------------------------|
B|-----------1----------(1)----------0-----------0---|
G|-----2--2--------2--2--------2--2--------2--2------|
D|--------2-----------2--2--------2-----------2------|
A|--0-----------0-----------0-----------0------------|
E|---------------------------------------------------|
    good                       I just fall out of -

[Chorus]
   Em                       Em7
e|---------------------------------------------------|               
B|-----------0-----------0-----------3--------3-/-5--|                
G|-----0--0--------0--0--------0--0--------0--0-/-x--|                
D|--------2-----------2-----------2-----------2-/-5--|
A|-(2)----2----(2)----2----(2)----2----(2)----2-/-3--|
E|--0-----------0-----------0-----------0------------|
   line

    C
e|---------------------------------------------------|
B|-----------5-----------5-----------5--------5-\-3--|
G|--------x-----------x-----------x-----------x-\-0--|
D|-(5)-5--5----(5)-5--5----(5)-5--5----(5)-5--5-\-0--|
A|--3-----3-----3-----3-----3-----3-----3-----3-\-x--|
E|---------------------------------------------------|                (x2) (the whole chorus)

    G
e|---------------------------------------------------|
B|-----------3-----------3-----------3-----------3---|
G|-----0--0--------0--0--------0--0--------0--0------|
D|--------0-----------0-----------0-----------0------|
A|-(2)----2----(2)----2----(2)----2----(2)----2------|
E|--3-----------3-----------3-----------3------------|
   
    D/F#        D           D7   
e|---------------------------------------------------|
B|-----------3-----------3-----------1-----0---------|
G|-----2--2--------2--2--------2--2--------------0---|
D|--------0-----0-----0-----0-----0-----0-----0------|
A|-(x)----x------------------------------------------|
E|--2------------------------------------------------|

[Interlude]
    Em
e|---------------------------------------------------|
B|---------------------------------------------------|
G|--------0-----------0-----------0-----------0------|  
D|-----2-----------2-----------2-----------2---------|   (x2)
A|--2--------2--2--------2--2--------2--2--------2---|
E|---------------------------------------------------|

[Verse] 
   Em
e|---------------------------------------------------|
B|---------------------------------------------------|
G|-----------0-----------0-----------0-----------0---|
D|-----2--2--------2--2--------2--2--------2--2------|
A|--------2-----------2-----------2-----------2------|
E|--0-----------0-----------0-----------0------------|
        
   C                                                            (x3)
e|---------------------------------------------------|
B|-----------------------------------1-----------0---|
G|-----------0-----------0---------------------------|
D|-----2--2--------2--2--------2--2--------2--2------|
A|--3-----3-----3-----3-----3-----3-----3-----3------|
E|---------------------------------------------------|

   Em
e|---------------------------------------------------|
B|---------------------------------------------------|
G|-----------0-----------0-----------0-----------0---|          (x1)
D|-----2--2--------2--2--------2--2--------2--2------|
A|--------2-----------2-----------2-----------2------|  
E|--0-----------0-----------0-----------0------------|

[Bridge]
   C
e|---------------------------------------------------|
B|---------------------------------------------------|
G|-----------0-----------0-----------0-----------0---|
D|-----2--2--------2--2--------2--2--------2--2------|
A|--3-----3-----3-----3-----3-----3-----2-----2------|
E|---------------------------------------------------|
                     'cause all         this

    Asus2
e|---------------------------------------------------|
B|-----------0----------(0)----------0-----------0---|
G|-----2--2--------2--2--------2--2--------2--2------|
D|--------2-----------2--2--------2-----------2------|
A|--0-----------0-----------0-----------0------------|
E|---------------------------------------------------|
    time                 I've been chasing      down a

    Em
e|---------------------------------------------------|
B|-----------0-----------0-----------0-----------0---|
G|-----------------------------0--0--------0--0------|
D|-----2--2--------2--2-----------0-----------0------|
A|--------2-----------2-----------x-----------x------|
E|--0-----------0-----------3-----------3------------|
    lie                     And I know it for what it 

    C                                 
e|---------------------------------------------------|
B|-----------1-----------1-----------1-----------1---|
G|---------------------------------------------------|
D|-----2--2--------2--2--------2--2--------2--2------|
A|--3-----3-----3-----3-----3-----3-----2-----2------|
E|---------------------------------------------------|
    is                  But it beats the alterna-

    Am                      Asus2
e|---------------------------------------------------|
B|-----------1----------(1)----------0-----------0---|
G|-----2--2--------2--2--------2--2--------2--2------|
D|--------2-----------2--2--------2-----------2------|
A|--0-----------0-----------0-----------0------------|
E|---------------------------------------------------|
   -tives                 So I'll      take the

[Chorus]
 Em                       Em7
e|---------------------------------------------------|               
B|-----------0-----------0-----------3--------3-/-5--|                
G|-----0--0--------0--0--------0--0--------0--0-/-x--|                
D|--------2-----------2-----------2-----------2-/-5--|
A|-(2)----2----(2)----2----(2)----2----(2)----2-/-3--|
E|--0-----------0-----------0-----------0------------|
   lie

    C
e|---------------------------------------------------|
B|-----------5-----------5-----------5--------5-\-3--|
G|--------x-----------x-----------x-----------x-\-0--|
D|-(5)-5--5----(5)-5--5----(5)-5--5----(5)-5--5-\-0--|
A|--3-----3-----3-----3-----3-----3-----3-----3-\-x--|
E|---------------------------------------------------|                (x2) (the whole chorus)

    G
e|---------------------------------------------------|
B|-----------3-----------3-----------3-----------3---|
G|-----0--0--------0--0--------0--0--------0--0------|
D|--------0-----------0-----------0-----------0------|
A|-(2)----2----(2)----2----(2)----2----(2)----2------|
E|--3-----------3-----------3-----------3------------|
   
    D/F#        D           D7   
e|---------------------------------------------------|
B|-----------3-----------3-----------1-----0---------|
G|-----2--2--------2--2--------2--2--------------0---|
D|--------0-----0-----0-----0-----0-----0-----0------|
A|-(x)----x------------------------------------------|
E|--2------------------------------------------------|

[Outro]
Em                       Em7
e|---------------------------------------------------|               
B|-----------0-----------0-----------3--------3-/-5--|                
G|-----0--0--------0--0--------0--0--------0--0-/-x--|                
D|--------2-----------2-----------2-----------2-/-5--|
A|-(2)----2----(2)----2----(2)----2----(2)----2-/-3--|
E|--0-----------0-----------0-----------0------------|

    C
e|---------------------------------------------------|
B|-----------5-----------5-----------5--------5-\-3--|
G|--------x-----------x-----------x-----------x-\-0--|
D|-(5)-5--5----(5)-5--5----(5)-5--5----(5)-5--5-\-0--|
A|--3-----3-----3-----3-----3-----3-----3-----3-\-x--|
E|---------------------------------------------------|                (x4)

    G
e|---------------------------------------------------|
B|-----------3-----------3-----------3-----------3---|
G|-----0--0--------0--0--------0--0--------0--0------|
D|--------0-----------0-----------0-----------0------|
A|-(2)----2----(2)----2----(2)----2----(2)----2------|
E|--3-----------3-----------3-----------3------------|
   
    D/F#        D           D7   
e|---------------------------------------------------|
B|-----------3-----------3-----------1-----0---------|
G|-----2--2--------2--2--------2--2--------------0---|
D|--------0-----0-----0-----0-----0-----0-----0------|
A|-(x)----x------------------------------------------|
E|--2------------------------------------------------|

(Then end with an Em)


************************************

| /   slide up
| \   slide down
| x   Mute note
|(0)  Ghost note (play 'em or don't)


************************************

            
            
Suggest correction
Creating personal tab
Creating personal tab
You can edit any tab online and save it as your Personal.

You can edit, replace or remove any tab part or add personal notes – all changes will be seen only by you.

Personal tabs can be accessed anytime from any device, even offline.
Learn more »
Give kudos to tab author, rate the tab!
1 2 3 4 5
comments
print report bad tab
guest
You may want to rate the tab now too:
select rating
Wanna post a correction for this tab? Suggest correction