Oops, an error
Loading. Please wait.

The Ship In Port Tab

version 2
version 2

Whole song

  • Didn't find any tab of this song so I did it by ear and for a request. Capo 6.
40 views 1 this week
no commentswrite comment
1 2 3 4 5
3 more votes to show rating
add to favorites
launch autoscroll
font size
0
reset
how to read this tab
guitar tuner
Autoscroll
slow
fast
+/-
esc
set tempo
stop
Help us to improve Ultimate-Guitar.com Take our survey!
×
Author
Difficulty
Capo
intermediate
6th fret
About this tab version
Didn't find any tab of this song so I did it by ear and for a request. Capo 6. Was this info helpful? Yes No
Artist: Radical Face
From The Family Tree : The Leaves (2016)
Song : The Ship in Port

Wrote this tab by ear so it may have some mistakes but it sounds nice to me.
Feel free to comment to correct it.

Capo 6 (notes relative to capo)


[Verse 1]

Some say         your dreams   are a  di - stant       road
e|-----------------|-----------------|-----------------|-----------------|
B|-----------------|-----------------|-----------------|-----------------|
G|-7-----7-----7---|-7-----7-----7---|-4-----4-----4---|-2-----2-----2---|
D|---7-----7-------|---6-----6-------|---5-----5-------|---4-----4-------|
A|-----5-----5---5-|-----5-----5---5-|-----5-----5---5-|-----0-----0---0-|
E|-----------------|-----------------|-----------------|-----------------|

Down which   our hearts would like to go
e|-----------------|-----------------|-----------------|-----------------|
B|-----------------|-----------------|-----------------|-----------------|
G|-4-----4-----4---|-2-----2-----2---|-6-----6-----6---|-7-----7-----7---|
D|---5-----5-------|---4-----4-------|---7-----7-------|---7-----7-------|
A|-----5-----5---5-|-----0-----0---0-|-----7-----7---7-|-----7-----7---7-|
E|-----------------|-----------------|-----------------|-----------------|

But I          have al -         ways stayed         in place
e|-----------------|-----------------|-----------------|-----------------|
B|-----------------|-----------------|-----------------|-----------------|
G|-7-----7-----7---|-2-----2-----2---|-4-----4-----4---|-2-----2-----2---|
D|---7-----7-------|---4-----4-------|---5-----5-------|---4-----4-------|
A|-----5-----5---5-|-----4-----4---4-|-----5-----5---5-|-----0-----0---0-|
E|-----------------|-----------------|-----------------|-----------------|
                    Under that old    illusion that is safe
e|-----------------|-----------------|-----------------|-----------------|
B|-----------------|-----------------|-----------------|-----------------|
G|-----2-----2-----|-4-----4-----4---|-2-----2-----2---|-7-----7-----7---|
D|-2h4---2h4---2---|---5-----5-------|---4-----4-------|---6-----6-------|
A|---------------0-|-----5-----5---5-|-----0-----0---0-|-----5-----5---5-|
E|-----------------|-----------------|-----------------|-----------------|

e|-----------------|
B|-----------------|
G|-7-----7-----7---|
D|---7-----7-------|
A|-----5-----5---5-|  x 2
E|-----------------|

You said the ship in port is the safer one
But it's not the reason it was made
So forgive me if I wander off
And forgive me more if I just stay

[Chorus]

                                     Sing another song for the lost ones
e|-----------------|-----------------|-----------------|-----------------|
B|-----------------|-----------------|-----------------|-----------------|
G|-7-----7-----7---|-7-----7-----7---|-7-----7-----7---|-2-----2-----2---|
D|---7-----7-------|---6-----6-------|---6-----6-------|---4-----4-------|
A|-----5-----5---5-|-----5-----5---5-|-----5-----5---5-|-----0-----0---0-|
E|-----------------|-----------------|-----------------|-----------------|

                   We're the ones who need it the most
e|-----------------|-----------------|
B|-----------------|-----------------|
G|-4-----4-----4---|-4-----4-----4---|
D|---5-----5-------|---5-----5-------|
A|-----5-----5---5-|-----5-----5---5-|  x 2
E|-----------------|-----------------|

Every time you run it'll cost ya'
But it doesn't stop runnin'

[Verse 2] (Same thing)

If a co -        ward dies        a   thou -        sand times
e|-----------------|-----------------|-----------------|-----------------|
B|-----------------|-----------------|-----------------|-----------------|
G|-7-----7-----7---|-7-----7-----7---|-4-----4-----4---|-2-----2-----2---|
D|---7-----7-------|---6-----6-------|---5-----5-------|---4-----4-------|
A|-----5-----5---5-|-----5-----5---5-|-----5-----5---5-|-----0-----0---0-|
E|-----------------|-----------------|-----------------|-----------------|

Then there's a grave - yard   in      my head
e|-----------------|-----------------|-----------------|-----------------|
B|-----------------|-----------------|-----------------|-----------------|
G|-4-----4-----4---|-2-----2-----2---|-6-----6-----6---|-7-----7-----7---|
D|---5-----5-------|---4-----4-------|---7-----7-------|---7-----7-------|
A|-----5-----5---5-|-----0-----0---0-|-----7-----7---7-|-----7-----7---7-|
E|-----------------|-----------------|-----------------|-----------------|

'Cause it took    me years         to say         the words
e|-----------------|-----------------|-----------------|-----------------|
B|-----------------|-----------------|-----------------|-----------------|
G|-7-----7-----7---|-2-----2-----2---|-4-----4-----4---|-2-----2-----2---|
D|---7-----7-------|---4-----4-------|---5-----5-------|---4-----4-------|
A|-----5-----5---5-|-----4-----4---4-|-----5-----5---5-|-----0-----0---0-|
E|-----------------|-----------------|-----------------|-----------------|

                    That you         did not even need said
e|-----------------|-----------------|-----------------|-----------------|
B|-----------------|-----------------|-----------------|-----------------|
G|-----2-----2-----|-4-----4-----4---|-2-----2-----2---|-7-----7-----7---|
D|-2h4---2h4---2---|---5-----5-------|---4-----4-------|---6-----6-------|
A|---------------0-|-----5-----5---5-|-----0-----0---0-|-----5-----5---5-|
E|-----------------|-----------------|-----------------|-----------------|

e|-----------------|
B|-----------------|
G|-7-----7-----7---|
D|---7-----7-------|
A|-----5-----5---5-|
E|-----------------|


[Chorus]

                                   Sing another song for the lost ones
e|-----------------|-----------------|-----------------|-----------------|
B|-----------------|-----------------|-----------------|-----------------|
G|-7-----7-----7---|-7-----7-----7---|-7-----7-----7---|-2-----2-----2---|
D|---7-----7-------|---6-----6-------|---6-----6-------|---4-----4-------|
A|-----5-----5---5-|-----5-----5---5-|-----5-----5---5-|-----0-----0---0-|
E|-----------------|-----------------|-----------------|-----------------|

                   We're the ones who need it the most
e|-----------------|-----------------|
B|-----------------|-----------------|
G|-4-----4-----4---|-4-----4-----4---|
D|---5-----5-------|---5-----5-------|
A|-----5-----5---5-|-----5-----5---5-|  x 2
E|-----------------|-----------------|

Nothin' that you fear is forgotten
It follows you around like

[Bridge outro]

  D/F#      Em7       D/F#       G
e|-------------------------------------------|
B|-3-----3-3-3-----3-3-3-----3-3-3-----3-3-3-|
G|-2-----2-2-0-----0-0-2-----2-2-0-----0-0-2-|
D|-0-----0-0-2-----2-2-0-----0-0-0-----0-0-0-|
A|-0-----0-0-2-----2-2-0-----0-0-2-----2-2-0-|  x 2
E|-2-----2-2-0-----0-0-2-----2-2-3-----3-3-2-|

D/F#             Em7         D/F#     G 
Then everything danced to a stranger tune
D/F#        Em7              D/F#       G
And we found our song and we found our truth
D/F#            Em7             D/F#      G 
And now that we know it's that we always knew
D/F#              Em7         D/F#     G 
Farewell to the chains we were born into

D/F#   Em7   D/F#    G

D/F#                       Em7         D/F# 
And as we danced among the ashes of our arms
              G
We laughed it off
           D/F#                Em7            D/F# 
And then we burned our tiny world to find the ocean
      G                  D/F#
Just beyond those paper walls


********************
| h   Hammer-on
********************
Suggest correction
Give kudos to tab author, rate the tab!
1 2 3 4 5
comments
print report bad tab
guest
You may want to rate the tab now too:
select rating
Wanna post a correction for this tab? Suggest correction