Oops, an error
Loading. Please wait.

Welcome Home Tab

version 1
version 1

Whole song

Interactive

Video

71,655 views 75 this week
1 commentread comment
1 2 3 4 5
x 11
add to favorites
launch autoscroll
font size
0
reset
how to read this tab
guitar tuner
×
Best way to learn
"Welcome Home"
Autoscroll
slow
fast
+/-
esc
set tempo
stop
Tuning: Standard

[Intro]
   F#
E|-------------------------------------------------|
B|-------------------------------------------------|   
G|-------------------------------------------------|
D|----4-----4-----4-----4-----4-----4-----4-----4--|
A|-------------------------------------------------|
E|-2-----2-----2-----2-----2-----2-----2-----2-----|

  Bb?                Bb                                 (x3  0
e|--------------------------------------------------|
B|--------------------------------------------------|
G|--------------------------------------------------|
D|----4-----4-----4-----3-----3-----3---------------| 
A|-1-----1-----1-----1-----1-----1---------1--4-----|
E|--------------------------------------------------|

E|-------------------------------------------------|
B|-------------------------------------------------|
G|-------------------------------------------------|   (x3)
D|----3-----3-----3-----3-----3-----3-----3-----3--|
A|-1-----1-----1-----------------------------------|
E|-------------------1-----1-----1-----1-----1-----|

e|-------------------------------------------------|
B|-------------------------------------------------|
G|-------------------------------------------------|
D|----6-----6-----6-----6-----6-----6-----6-----6--|  
A|-4-----4-----4-----4-----4-----4-----4-----4-----|
E|-------------------------------------------------|
   
[Verse]
e|-------------------------------------------------|
B|-------------------------------------------------|   
G|-------------------------------------------------|
D|----4-----4-----4-----4-----4-----4-----4-----4--|
A|-------------------------------------------------|
E|-2-----2-----2-----2-----2-----2-----2-----2-----|

e|--------------------------------------------------|
B|--------------------------------------------------|
G|--------------------------------------------------|
D|----3-----3-----3-----3-----3-----3-----3-----3---|
A|-1-----1-----1-----1-----1-----1-----1-----1------|
E|--------------------------------------------------|

e|--------------------------------------------------|
B|--------------------------------------------------|
G|--------------------------------------------------|
D|----3-----3-----3-----3-----3-----3-----3-----3---|
A|-1-----1-----1------------------------------------|
E|-------------------1-----1-----1-----1-----1------|

e|--------------------------------------------------|
B|--------------------------------------------------|
G|--------------------------------------------------|
D|----3-----3-----3-----3-----3-----3-----3-----3---|
A|-1-----1-----1------------------------------------|
E|-------------------1-----1-----1-----1-----1------|

e|-------------------------------------------------|
B|-------------------------------------------------|
G|-------------------------------------------------|
D|----6-----6-----6-----6-----6-----6-----6-----6--|  
A|-4-----4-----4-----4-----4-----4-----4-----4-----|
E|-------------------------------------------------|

[Chorus:]
Ebm xx1342
C#  x46664
B   x24442
F#  244322
        Ebm    C#    B    F# 
Welcome home.
Ebm    C#    B    F#

[Outro]
       Ebm         B        F#
All my nightmares escape my head,
        Ebm               B        F#
Bar the door please don’t let them in,
         Ebm      B       F#
You were never suppose to leave
       Ebm    B                F#
Now my head’s splitting at the seams
    B       F#      C#
And I don’t know if I can.
Here beneath my lungs I feel your thumbs press into my skin again.
Suggest correction
comments
print report bad tab
1 comment total.
0 reply
Nattack_TGD 32 Sep 21, 2011 12:01 PM

All good, apart from I think it's in half step down, the eflat in the chorus in standard is too high.
So you have to move everything up a fret.

guest
You may want to rate the tab now too:
select rating
Wanna post a correction for this tab? Suggest correction