Oops, an error
Loading. Please wait.

Welcome Home Chords

version 2
version 2

Whole song

Interactive

Video

176,179 views 255 this week
5 commentsread comments
1 2 3 4 5
excellent!
x 81
add to favorites
launch autoscroll
font size
0
reset
transpose
0
reset
simplify chords
display chords
guitar tuner
Autoscroll
slow
fast
+/-
esc
set tempo
stop
Help us to improve Ultimate-Guitar.com Take our survey!
×
Difficulty
Tuning
novice
D# G# C# F# A# D#
--------------------------------------------------
radical face - welcome home 
Tuning: Half step down
--------------------------------------------------

[Intro]

G5      B5 C5     


[Verse]

G          Bm         C         G         
Sleep don't visit, so I choke on sun
        C         G  D
And the days blur into one
        C           G            C           G    D
And the backs of my eyes hum with things I've never done

G         Bm             C          G  
Sheets are swaying from an old clothesline
       C      G       D          C        G
Like a row of captured ghosts over old dead grass
          C           G       D
Was never much but we made the most


[Chorus]

        Em    D     C     G  
Welcome home
Em  D   C     G  


[Verse]

G        Bm       C       G
Ships are launching from my chest
          C         G      D 
Some have names but most do not
       C         G            C         G         D
If you find one, please let me know what piece I've lost

G       Bm        C      G
Heal the scars from off my back
        C         G  D
I don't need them any more
        C          G               C       G    D
You can throw them out or keep them in your mason jars


[Chorus]

          Em    D     C     G  
I've come home


[Outro]

       Em          C        G  
All my nightmares escaped my head
        Em                C        G
Bar the door, please don't let them in
         Em      C        G  
You were never supposed to leave
       Em    C                G 
Now my head's splitting at the seams
    C       G      D
And I don't know if I can 
Suggest correction
comments
print report bad tab
5 comments total. Showing first comments.
+1 reply
majorityagainst 31 wrote on January 26 2011, 05:30 pm

really good !
But if theres a Em in the chorus i dont know when i should play it ...

By the way:
Eb||-------------------------------------------------|
Bb||-------------------------------------------------|
Gb||-------------------------------------------------|
Db||----5-----5-----5-----5-----5-----5-----5-----5--|
Ab||-------------------------------------------------|
Eb||-3-----3-----3-----3-----3-----3-----3-----3-----|
Bb? Bb x3
eb|--------------------------------------------------||
Bb|--------------------------------------------------||
Gb|--------------------------------------------------||
Db|----5-----5-----5-----4-----4-----4---------------||
Ab|-2-----2-----2-----2-----2-----2---------2--5-----||
Eb|--------------------------------------------------||

Eb||-------------------------------------------------||
Bb||-------------------------------------------------||
Gb||-------------------------------------------------|| x3
Db||----4-----4-----4-----4-----4-----4-----4-----4--||
Ab||-2-----2-----2-----------------------------------||
Eb||-------------------2-----2-----2-----2-----2-----||

eb||-------------------------------------------------||
Bb||-------------------------------------------------||
Gb||-------------------------------------------------||
Db||----7-----7-----7-----7-----7-----7-----7-----7--|| x1
Ab||-5-----5-----5-----5-----5-----5-----5-----5-----||
Eb||-------------------------------------------------||

0 reply
bunterhund 62 wrote on April 1 2011, 02:15 pm

i think the second part of picking is more like this:

Eb||-------------------------------------------------
Bb||-------------------------------------------------
Gb||-------------------------------------------------
Db||----5-----5-----5-----5-----5-----5-----5-----5--
Ab||-3-----3-----3-----------------------------------
Eb||-------------------3-----3-----3-----3-----3-----

Eb-------------------------------------------------||
Bb-------------------------------------------------||
Gb-------------------------------------------------||
Db----5-----5-----5-----5-----5-----5-----7-----7--||
Ab-3-----3-----3-----------------------5-----5-----|| x2
Eb-------------------3-----3-----3-----------------||

+3 reply
gbxdl 30 wrote on July 24 2011, 10:32 am

http://www.youtube.com/watch?v=JoQfSneXENM
explained by ben cooper himself :)

guest
You may want to rate the tab now too:
select rating
Wanna post a correction for this tab? Suggest correction