Oops, an error
Loading. Please wait.

Winter Is Coming Tab

5,465 views 3 this week
no commentswrite comment
1 2 3 4 5
accurate
x 5
add to favorites
launch autoscroll
font size
0
reset
how to read this tab
guitar tuner
Autoscroll
slow
fast
+/-
esc
set tempo
stop
Help us to improve Ultimate-Guitar.com Take our survey!
×
Author
Difficulty
intermediate
Winter is Coming - Radical Face
Tabbed by Sam Wallis (sam_8orbetter@hotmail.co.uk)


e|---------------------------------------------------------------------------|
B|-----1-------1---2---1---------1-------1---2---1---------------------------|
G|---2-----2-------------2-----2-----2-------------2-------------------------|
D|-3-----3---3---3---3-------3-----3---3---3---3-----------------------------|
A|---------------------------------------------------------------------------|
E|---------------------------------------------------------------------------|

e|---------------------------------------------------------------------------|
B|-----1-------1---2---1---------1-------1---0---1---------------------------|
G|---2-----2-------------2-----2-----2-------------2-------------------------|
D|-3-----3---3---3---3-------3-----3---3---3---3-----------------------------|
A|---------------------------------------------------------------------------|
E|---------------------------------------------------------------------------|

MAIN RIFF:
e|---------------------------------------------------------------------------|
B|-----1-------1---2---1---------1-------1---2---1---------------------------|
G|---2-----2-------------2-----2-----2-------------2-------------------------|
D|-3-----3---3---3---3-------3-----3---3---3---3-----------------------------|
A|---------------------------------------------------------------------------|
E|---------------------------------------------------------------------------|
                                                                              x 2
e|-----1---------------------------------------------------------------------|
B|---------4---2---1----------2---4---2--------------------------------------|
G|---3---------------3------2-------------5---3------------------------------|
D|-3-----3---3---3--------2-----2---2---2---2--------------------------------|
A|---------------------------------------------------------------------------|
E|---------------------------------------------------------------------------|

Chords used:

  F  Bb  A   Am G
e -----------0--3-|
B 1----------1--3-|
G 2--3---2---2--0-|
D 3--3---2---2--0-|
A ---1---0---0--2-|
E --------------3-|

F
I see the winter, she's crawling up the lawn
Bb                   A
I feel her breathing beneath my palms

<---MAIN RIFF--->

F
She tears the trees down while curses roll from her tongue
Bb                   A
Got eyes like anvils and storms for lungs

<---MAIN RIFF--->

F
Hiding in our house, sunburn in his mouth,
                            Am            G
Summer's in our basement now
F
Light beneath the door, light beneath the door,
                           Am             G
Just enough to keep us warm
F
Don't you let it out, don't you let it out,

Just make sure he's always around
Am        G          F Am G    Am      G       F   Am G
But we're all out of time, nothing left to decide
Am        G                Am       G
Pack your things up quick, this one can't be fixed
Am        G                F
Leave the rest of it behind

Next bit it's variation of opening riff, I just palm mute these chords and it's in tune:

  F   C? G
e ------------|
B 1---3--3----|
G 2---5--4----|  (Palm muted)
D 3---5--5----|
A ------------|
E ------------|

F
We push through trees now, our house is covered in ice
C?                                         G
Our breath falls from our mouths like tiny rainclouds
F
We tug on Summer, and he melts the snow at our feet
C?                                G
She's on our heels, there's never time to stop and sleep

INTERLUDE:

     F     Am F      G  Am    G  F  <-----MAYBE!?

e|---5-5-5----5-5-5--7--3-3-3-----------7----------------------------------------|
B|----------5-----------------5--3-3-3-------------------------------------------|
G|-------------------------------------------------------------------------------|
D|-------------------------------------------------------------------------------|
A|-------------------------------------------------------------------------------|
E|-------------------------------------------------------------------------------|

OR with natural harmonics...

e|-----------------------------------------------------------------------------------|
B|------------------(12)--------------(12)-------------------------------------------|
G|---------------------(12)----------------------------------------------------------|
D|---(7)-------(7)--------------(12)-------------------------------------------------|
A|----------(7)--------------(7)-----------------------------------------------------|
E|-----------------------------------------------------------------------------------|

F
I feel you breathing, I hear you curse my name
C?                            G
I hope that you'll forgive me one of these day

INTERLUDE x 2

F
The sky is bleeding, the fog is thicker than walls
C?                           G
She's wrapped up in it, like cloth on a wrecking ball

BAR CHORDS:
C                    G
Everything we stole, everything we broke,
F
Everything we bought is gone
C                       G
A couple dumb mistakes, bigger than we thought,
F
Nothing to left to do but run
C                       G
If I could put it back, fill in all the cracks,
F
Nothing there I wouldn't change
C                        G
But wishing never helps, wishing never helps,
F
Wishing never solved a thing

OUTRO:

e|-------------------------------------------------------------------------------|
B|-1--3--5--6--5-----3--1--0/-1--3--5--6--5--8--12--13---------------------------|
G|-------------------------------------------------------------------------------|
D|-------------------------------------------------------------------------------|
A|-------------------------------------------------------------------------------|
E|-------------------------------------------------------------------------------|

F
You were right
      Am            G
Yeah, you were right
F
You were right
     Am            G
Yeah, you were right


WE MADE IT!
Suggest correction
What's this?
You can suggest a correction to this tab. Community and Mods will review your correction and vote to approve or reject it.
comments
print report bad tab
guest
You may want to rate the tab now too:
select rating
Please do not post tabs as comments. Select "correction" instead!