Oops, an error
Loading. Please wait.

Anglo Girl Desire Tab

1,442 views 3 this week
no commentswrite comment
1 2 3 4 5
please rate
add to favorites
launch autoscroll
font size
0
reset
how to read this tab
guitar tuner
Autoscroll
slow
fast
+/-
esc
set tempo
stop
Help us to improve Ultimate-Guitar.com Take our survey!
×
Author
-----------------------------------------------------------------------------
                           Anglo Girl Desire - Radio Birdman
-----------------------------------------------------------------------------

Tuning:Standard

VERSE
Guitar 1
e|---------0----3----2----|
B|---------0----3----3----|
G|---2-5-4-1----0----2----|
D|-2-2-5-4-2----0----0----|
A|-2-0-3-2-2----2---------|
E|-0-------0----3---------|

Guitar 2
e|--------------------------------10-x-10-|
B|------------9-x-9----12-x-12----10-x-10-|
G|------------9-x-9----12-x-12----11-x-11-|
D|---7-10-9---9-x-9----12-x-12----12-x-12-|
A|-7--------7-7-x-7-10-10-x-10----12-x-12-|
E|-----------------------------10-10-x-10-|

Chorus
e|--------------------------------------------------------|
B|--------------------------------------------------------|
G|--------------------------------------------------5--7--|
D|-2-2-2-2-2-2-2-2-5-5-5-5-5-5-5-5-7-7-7-7-7-7-7-7--5--7--|
A|-2-2-2-2-2-2-2-2-5-5-5-5-5-5-5-5-7-7-7-7-7-7-7-7--3--5--|
E|-0-0-0-0-0-0-0-0-3-3-3-3-3-3-3-3-5-5-5-5-5-5-5-5--------|

Post-Chorus
e|---------------------------------|
B|-7s9-9s7-7s9-9s7-7s9-9s7-7s9-9s7-|
G|-7s9-9s7-7s9-9s7-7s9-9s7-7s9-9s7-|
D|-7s9-9s7-7s9-9s7-7s9-9s7-7s9-9s7-|
A|-5s7-7s5-5s7-7s5-5s7-7s5-5s7-7s5-|
E|---------------------------------|

Solo
e|-----------------------------------------------------------|
B|-----------------------------------------------------------|
G|-------11-12-----------------12-14b16-14b16-14p12----------|
D|----14-------------12--12h14----------------------14p12h14-|
A|-------------12h14-----------------------------------------|
E|-12--------------------------------------------------------|
Repeat 4 times then play:

e|----------------------------------------------------------------------|
B|----------------------------------------------------------------------|
G|-------------------------------------12p11----------16p14-12----------|
D|--------------------------14--16--14-------14-12-------------14-12h14-|
A|----------12----12-14-12-------------------------14-------------------|
E|-12-14-15----15-------------------------------------------------------|

e|-------------------------------------------------------------------------|
B|----------15-----15-----15--------------------------15-----15-----15-----|
G|-12----12----14b----14b----14b-14b16r14p12-------------14b----14b----14b-|
D|----14-------------------------------------14p12-12----------------------|
A|-------------------------------------------------------------------------|
E|-------------------------------------------------------------------------|

e|---------------------------------------------------------------------|
B|---------15---------15-12---------15---------------------------------|
G|-14b-14b----14b-14b-------14b-14b----14b-14b-14b-14b-14b-14b-14b-14b-|
D|---------------------------------------------------------------------|
A|---------------------------------------------------------------------|
E|---------------------------------------------------------------------|

e|-12----------------------|
B|-------------15----12----|
G|-------12----------------|
D|-------------------------|
A|-------------------------|
E|-------------------------|
Suggest correction
Give kudos to tab author, rate the tab!
1 2 3 4 5
comments
print report bad tab
guest
You may want to rate the tab now too:
select rating
Wanna post a correction for this tab? Suggest correction