Oops, an error
Loading. Please wait.

Mujer tab

version 2
version 2

Whole song

10 views 1 this week
no commentswrite comment
1 2 3 4 5
3 more votes to show rating
add to favorites
×
Save as Personal and add changes to this tab that will be seen only by you. Learn more ›
×
You can save this tab as Personal to edit and correct it or add notes. All changes will be seen only by you. Learn more »
launch autoscroll
font size
0
reset
how to read this tab
guitar tuner
edit
Autoscroll
slow
fast
+/-
esc
set tempo
stop
Espero y sea de su agrado esta canción
es muy bonita!!!!!


Nota: Los acordes G, C, D son en segunda versión.
Los acordes estas hasta el final.


  Intro.

e|------3------------3------------3------------3------|
B|----------3------------3------------5------------5--|
G|----------4------------4------------5------------5--|
D|-----------------------------------------5----------|
A|--5------------5------------3-----------------------|
E|----------------------------------------------------|

  Talvez no...
e|------3------------3------------3------------3------|
B|----------3------------3------------5------------5--|
G|----------4------------4------------5------------5--|
D|-----------------------------------------5----------|
A|--5------------5------------3-----------------------|
E|----------------------------------------------------|

  Talvez queramos volver...
e|------3------------3------------3------------3------|
B|----------3------------3------------5------------5--|
G|----------4------------4------------5------------5--|
D|-----------------------------------------5----------|
A|--5------------5------------3-----------------------|
E|----------------------------------------------------|


 G                         C
yo te extraño como un loco que se pierde
               G  C
en la inmensidad, si tu no estas
 G
yo te quiero como un loco
 C
que se muere poco a poco
 G            C                C
si tu te vas, si tu te vas.


 G       Bm
Dime tu mujer
         C          D
que debo hacer para no quedarme solo
 G      Bm
Dime mujer
      C              D
si la soledad vendra por mi otravez.


     (2x)
 G, Bm, C, D


e|------3------------------3-----------------3-----------------3-----------3--|
B|----------3-----------------3-----------------5-----------------5-----------|
G|----------4--4--------------4--4--------------5--5--------------5--5--------|
D|----------------5-----------------5-----------------5-----------------5-----|
A|--5------------------5-----------------3-----------------3------------------|
E|----------------------------------------------------------------------------|


 G
Talvez no quieras saber
               C                   C
lo fascinante que es tenerte aqui (saber que te tengo a mi lado)
 G
puede que no quieras ver la abertura que
                C
te da el placer pues no pasa nada

 G                       C
Yo te sueño como un loco que se
                    G    C
pierde en la inmensidad, si tu no estas
 G                        C
Yo te pienso como un loco que se muere poco a poco
 G
si tu te vas
 C                C
si tu te vas.


G       Bm
Dime tu mujer
         C          D
que debo hacer para no quedarme solo
 G      Bm
Dime mujer
      C              D
si la soledad vendra por mi otravez.


     (2x)
 G, Bm, C, D


    G           C            D
e|--3----|  e|--3-----|  e|--5-----|
B|--3----|  B|-----5--|  B|-----7--|
G|---4---|  G|-----5--|  G|-----7--|
D|----5--|  D|-----5--|  D|-----7--|
A|----5--|  A|--3-----|  A|--5-----|
E|--3----|  E|--3-----|  E|--5-----|
Suggest correction
Creating personal tab
Creating personal tab
You can edit any tab online and save it as your Personal.

You can edit, replace or remove any tab part or add personal notes – all changes will be seen only by you.

Personal tabs can be accessed anytime from any device, even offline.
Learn more »
Give kudos to tab author, rate the tab!
1 2 3 4 5
comments
print report bad tab
guest
Wanna post a correction for this tab? Suggest correction