Oops, an error
Loading. Please wait.

Volverte A Besar tab

version 1
version 1

Whole song

17 views 1 this week
no commentswrite comment
1 2 3 4 5
3 more votes to show rating
add to favorites
×
Save as Personal and add changes to this tab that will be seen only by you. Learn more ›
×
You can save this tab as Personal to edit and correct it or add notes. All changes will be seen only by you. Learn more »
launch autoscroll
font size
0
reset
how to read this tab
guitar tuner
edit
Autoscroll
slow
fast
+/-
esc
set tempo
stop
Intro:

e|-7-5------9-7-9---------------------|
B|----------------9-----7---7---10-9-7|
G|--------------------9---9---9-------|
D|------------------------------------|
A|------------------------------------|
E|------------------------------------|

e|---------------------------------9-|
B|-9-10---12-10-9-7-10---12-10-9-7---|
G|-----------------------------------|
D|-----------------------------------|
A|-----------------------------------|
E|-----------------------------------|

e|-------9-7-9-------9-7-9-----9-7-9-----9-7-9|
B|-10-10-------10-10-------9-9-------9-9------|
G|--------------------------------------------|
D|--------------------------------------------|
A|--------------------------------------------|
E|--------------------------------------------|

e|-12-10---9-10-9---7-9-7---5-7-5-0|
B|---------------------------------|
G|---------------------------------|
D|---------------------------------|
A|---------------------------------|
E|---------------------------------|

e|-12-12-10---14-14-10-9----9-9-10-12|
B|-----------------------------------|
G|-----------------------------------|
D|-----------------------------------|
A|-----------------------------------|
E|-----------------------------------|

A                         C#m
Dibujo una nuve,con el pensamiento
Bm                                               Dm    D
me pierdo en las cosas más tontas que pueden existiiiiiiir.

A                                C#m
Y busco una estrella en un mar de sentimientos
Bm                                     Dm     D
recuerdo y me ahogo en todos mis 

e|-------9-7-9-------9-7-9-----9-7-9-----9-7-9|
B|-10-10-------10-10-------9-9-------9-9------|
G|--------------------------------------------|
D|--------------------------------------------|
A|--------------------------------------------|
E|--------------------------------------------|

e|-12-10---9-10-9---7-9-7---5-7-5-0|
B|---------------------------------|
G|---------------------------------|
D|---------------------------------|
A|---------------------------------|
E|---------------------------------|

e|-12-12-10---14-14-10-9----9-9-10-12--12-12|
B|------------------------------------------|
G|------------------------------------------|
D|------------------------------------------|
A|------------------------------------------|
E|------------------------------------------|

A                                                      C#m
No sé si dar las gracias por haberte conocido es un juego perdido
Bm
la vida no tiene ningún sentido si tú no estás,
Dm                  D
si tú no estás conmigo

A                                        C#m      Bm       Dm D
Y espero ese momento en el que pueda volverte a besaaar aaar aaar aaaa
A                 C#m                          Bm          Dm
Y hoy he decidido que por ti no llorare una vez más?


Solo:
A, C#m, Bm, Dm,D

Es que no puedo, no quiero, no miento , me muero
Bm                                Dm                   D
y espero ese momento y sin sentimientos

A                                            C#m
Es que no puedo, no quiero, no miento , me muero
Bm                             Dm
y espero ese momento en el que pueda volverte a besar

e|-------9-7-9-------9-7-9-----9-7-9-----9-7-9|
B|-10-10-------10-10-------9-9-------9-9------|
G|--------------------------------------------|
D|--------------------------------------------|
A|--------------------------------------------|
E|--------------------------------------------|

e|-12-10---9-10-9---7-9-7---5-7-5-0|
B|---------------------------------|
G|---------------------------------|
D|---------------------------------|
A|---------------------------------|
E|---------------------------------|

e|-12-12-10---14-14-10-9----9-9-10-12---~14---16-16|
B|-------------------------------------------------|
G|-------------------------------------------------|
D|-------------------------------------------------|
A|-------------------------------------------------|
E|-------------------------------------------------|

pz ezo ez todo ezpero que lez guste
y zi kieren otra rola ezte ez mi correo
kiike_eye@
para que me escriban oki

            
            
Suggest correction
Creating personal tab
Creating personal tab
You can edit any tab online and save it as your Personal.

You can edit, replace or remove any tab part or add personal notes – all changes will be seen only by you.

Personal tabs can be accessed anytime from any device, even offline.
Learn more »
Give kudos to tab author, rate the tab!
1 2 3 4 5
comments
print report bad tab
guest
Wanna post a correction for this tab? Suggest correction