Oops, an error
Loading. Please wait.

Justicia Shopping Center chords

version 2
version 2

Whole song

13 views 1 this week
no commentswrite comment
1 2 3 4 5
3 more votes to show rating
add to favorites
×
Save as Personal and add changes to this tab that will be seen only by you. Learn more ›
×
You can save this tab as Personal to edit and correct it or add notes. All changes will be seen only by you. Learn more »
launch autoscroll
font size
0
reset
transpose
0
reset
simplify chords
display chords
guitar tuner
edit
Autoscroll
slow
fast
+/-
esc
set tempo
stop
Strumming
There is no strumming pattern for this song yet. and get +5 IQ
JUSTICIA SHOPING CENTER


Excelente cancion de los Radio Criminal, que han vuelto con fuerza, 
esta cancion se encuentra en su ultimo album: NO CREO EN TU LEY


intro:
E-|-----------------------------------|
B-|-----------------------------------|
G-|-----------------------------------|
D-|--8-8-8-8-8-8/13-12----------------|   x4
A-|--8-8-8-8-8-8/13-12----------------|
E-|--6-6-6-6-6-6/11-10----------------|

E-|-----------------------------------------------|
B-|-----------------------------------------------|
G-|-----------------------------------------------|
D-|--8-8-8-8/10-10-10-10/13-13-13-13/12-12-12-12--|
A-|--8-8-8-8/10-10-10-10/13-13-13-13/12-12-12-12--|
E-|--6-6-6-6/-8--8--8--8/11-11-11-11/10-10-10-10--|


E-|-----------------------------------------------|
B-|-----------------------------------------------|
G-|-----------------------------------------------|
D-|--8-8-8-8/10-10-10-10/13-13-13-13/15-15-15-15--|
A-|--8-8-8-8/10-10-10-10/13-13-13-13/15-15-15-15--|
E-|--6-6-6-6/-8--8--8--8/11-11-11-11/13-13-13-13--|


  H5    
viejos boca sucia
 D#5 
sin moral ninguna
 H5
LEYES DE MENTIRA
 D#5 
ke no dan justicia
  H5           C5       D#5         D5
cuanto tiempo soportar esta falsa moralidad 
  H5           C5       D#5         J5
cuanto tiempo aguantar esta sucia justicia (x4)


INTERMEDIO:  H5-D#5-D5

E-|-----------------------------------|
B-|-----------------------------------|
G-|-----------------------------------|
D-|--3-3-3-3-3-3-6/8-8-8-6/8-8-8------|
A-|--3-3-3-3-3-3-6/8-8-8-6/8-8-8------|
E-|--1-1-1-1-1-1-4/6-6-6-4/6-6-6------|

E-|--------------------------------------------------|
B-|--------------------------------------------------|
G-|------------------------------8-8-8-8-8-10-10-10--|
D-|--3-3-3-3-3-3-6/8-8-8-6/8-8-8-8-8-8-8-8-10-10-10--|
A-|--3-3-3-3-3-3-6/8-8-8-6/8-8-8-6-6-6-6-6--8--8--8--|
E-|--1-1-1-1-1-1-4/6-6-6-4/6-6-6---------------------|


REPETIR INTRO

   H5
palacio infectado 
  D#5 
de un monton de cerdos
   H5
buitres azechando
  D#5 
al pobre indefenso
   H5           C5          D#5         D5 
palabriando,corrumpiendo, pisoteando los decretos
   H5           C5       D#5         J5
insultando, escupìendo y burlando mis derechos (x4)
H5   D#5-D5
    justicia (x4)


ACORDES:
     H5   D#5      D5       C5       J5 
E-|-------------------------------------------|
B-|-------------------------------------------|
G-|------------8--------7--------5--------10--|
D-|--8----13-o-8---12-o-7---10-o-5---15-o-10--|
A-|--8----13---6---12---5---10---3---15---8---|
E-|--6----11-------10-------8--------13-------|


Muy pronto: Flor de la calle, no creo en tu ley, criminal, palpitacion, 
mariano,crusifuck cualquier otro pedido o correccion, si alguien necesita 
un guitarrista, que me cago de ganas de tocar, jode a: 
                
            
            
Suggest correction
Creating personal tab
Creating personal tab
You can edit any tab online and save it as your Personal.

You can edit, replace or remove any tab part or add personal notes – all changes will be seen only by you.

Personal tabs can be accessed anytime from any device, even offline.
Learn more »
Give kudos to tab author, rate the tab!
1 2 3 4 5
comments
print report bad tab
guest
Wanna post a correction for this tab? Suggest correction