Oops, an error
Loading. Please wait.

Semilla Negra bass

version 1
version 1

Whole song

158 views 1 this week
no commentswrite comment
1 2 3 4 5
3 more votes to show rating
add to favorites
×
Save as Personal and add changes to this tab that will be seen only by you. Learn more ›
×
You can save this tab as Personal to edit and correct it or add notes. All changes will be seen only by you. Learn more »
launch autoscroll
font size
0
reset
guitar tuner
edit
Autoscroll
slow
fast
+/-
esc
set tempo
stop
NOTA: La llamada desde S1 a CODA1 quiere decir que volvemos a S1 y seguimos
tocando hasta encontrar un CODA1 y saltamos al siguiente CODA1

G :----------------|----------------|----------------|----------------|
D :----------------|----------------|----------------|----------------|
A :----------------|----------------|----------------|----------------|
E :----------------|----------------|----------------|----------------|
   S2
G :| ----------------|----------------|----------------|---------------- ||
D :|*------4---------|----------------|----------------|----------------*||
A :|*----5-------5---|------2---------|------4---------|------4---------*||
E :| ----------------|----3-------3---|----5-------5---|----5-------5--- ||
   S1                                                             CODA2  3x
G :| ----------------|----------------|----------------|---------------- ||
D :|*------4---------|----------------|----------------|----------------*||
A :|*----5-------5---|------2---------|------4---------|------4---------*||
E :| ----------------|----3-------3---|----5-------5---|----5-------5--- ||
   
G :| ----------------|----------------|----------------|----------------|
D :|*----------------|----------------|----------------|----------------|
A :|*------2---------|------2---------|------2---------|------2---------|
E :| ----3-------3---|----3-------3---|----3-------3---|----3-------3---|
                              CODA1  3x
G :----------------|---------------- ||
D :----------------|----------------*||
A :------4---------|------4---------*||
E :----5-------5---|----5-------5--- ||

G :| ----------------|----------------|----------------|------2-------2- ||
D :|*------4---------|----------------|----------------|--2-5-----2-5---*||
A :|*----5-------5---|------2---------|----------------|----------------*||
E :| ----------------|----3-------3---|----5---5-------|---------------- ||

Desde S1 a CODA1

  CODA1
G :----------------|----------------|----------------|----------------|
D :----------------|----------------|----------------|----------------|
A :---5--5-5---5-2-|----2---2-------|----------------|----------------|
E :----------------|----------3-----|5---------------|----------------|

G :----------------|----------------|----------------|------2-------2-|
D :----------------|----------------|----------------|--2-5-----2-5---|
A :---5--5-5---5-2-|----2---2-------|----------------|----------------|
E :----------------|----------3-----|5---------------|----------------|

G :----------------|----------------|----------------|2---2---2-------|
D :----------------|----------------|----------------|----------------|
A :---5--5-5---5-2-|----2---2-------|----------------|----------------|
E :----------------|----------3-----|5---------------|----------------|

G :----------------|----------------|----------------|------2-------2-|
D :----------------|----------------|----------------|--2-5-----2-5---|
A :---5--5-5---5-2-|----2---2-------|----------------|----------------|
E :----------------|----------3-----|5---------------|----------------|

Desde S2 a CODA2

G :----------------|----------------|| ----------------|----------------|
D :----------------|----------------||*----------------|----------------|
A :------2---------|------2---------||*------2---------|------2---------|
E :----3-------3---|----3-------3---|| ----3-------3---|----3-------3---|
                                     4x
   |-------- Vueltas 1, 2 y 3 -------||------- Vuelta 4-----------------|
G :----------------|------2-------2- ||----------------|----------------|
D :----------------|--2-5-----2-5---*||----------------|----------------|
A :----------------|----------------*||----------------|----------------|
E :----5---5-------|---------------- ||5---------------|----------------|
                                                    REPEAT AND FADE OUT      
G :| ----------------|----------------|---------------- ||
D :|*----------------|----------------|----------------*||
A :|*--5---5-5---5---|----2---2-------|----------------*||
E :| --------------2-|----------3-----|5--------------- ||


#------------------------------SIMBOLOS EMPLEADOS------------------------------#

        Simbolo Significado     Traduccion
        h       Hammer on       Notas ligadas, siendo la primera mas grave
        p       Pull off        Notas ligadas, siendo la primera mas aguda
        /       Slide up        Arrastrar de grave a agudo
        \       Slide down      Arrastrar de agudo a grave
        ^       Bend up         Estirar la cuerda hasta otra nota mas aguda
        b       Bend            Idem pero haciendola vibrar
        r       Release bend    Pasar de cuerda estirada a posicion normal
        ~       Vibrato         Hacer vibrar con movimiento paralelo al mastil
        ()      Soft            Tocar mas flojo
              Harmonic        Armonico
              Tremolo         Subir y bajar volumen rapidamente
        x       Muted string    La cuerda no debe sonar
        *       Stop string     Parar la cuerda
Suggest correction
Creating personal tab
Creating personal tab
You can edit any tab online and save it as your Personal.

You can edit, replace or remove any tab part or add personal notes – all changes will be seen only by you.

Personal tabs can be accessed anytime from any device, even offline.
Learn more »
Give kudos to tab author, rate the tab!
1 2 3 4 5
comments
print report bad tab
guest
Wanna post a correction for this tab? Suggest correction