Oops, an error
Loading. Please wait.

A Vida Num So Dia Bass Tab

253 views 1 this week
no commentswrite comment
1 2 3 4 5
please rate
add to favorites
launch autoscroll
font size
0
reset
guitar tuner
Autoscroll
slow
fast
+/-
esc
set tempo
stop
Help us to improve Ultimate-Guitar.com Take our survey!
×
Author
RIFF 1
E-5-5-5-5-----|
A---------3-5-|
D-------------|
G-------------|

RIFF 2
E---------------------------------|
A-5-5-5-5-5-5-5-5-3-3-3-3-3-3-3-3-|
D---------------------------------|
G---------------------------------|

RIFF 3
E-1-1-1-1-1-1-1-1-3-3-3-3-3-3-3-3---------------|
A---------------------------------3-5---5-------|
D-------------------------------------3---3-5---|
G---------------------------------------------3-|

RIFF 4
E-1-1-1-1-1-1-1-1-3-3-3-3-3-3-3-3-|
A---------------------------------|
D---------------------------------|
G---------------------------------|

RIFF 5
E---------------------------------|
A-5-5-8-7-8-7-5-7-5-5-8-7-8-7-3---|
D-------------------------------7-|
G---------------------------------|

 www.myspace.com/radiomacau
Suggest correction
Give kudos to tab author, rate the tab!
1 2 3 4 5
comments
print report bad tab
guest
You may want to rate the tab now too:
select rating
Wanna post a correction for this tab? Suggest correction