Oops, an error
Loading. Please wait.

Amanha E Sempre Longe Demais Bass Tab

658 views 1 this week
no commentswrite comment
1 2 3 4 5
please rate
add to favorites
launch autoscroll
font size
0
reset
guitar tuner
Autoscroll
slow
fast
+/-
esc
set tempo
stop
Help us to improve Ultimate-Guitar.com Take our survey!
×
Author
ARTIST:RADIO MACAU
MUSIC: AMANHÃ É SEMPRE LONGE DEMAIS 04:26
BASS PLAYER:TIM

Riff 1
E----------------------5-5--5-5-5-5-5-5---------3-3-3-3-3-3-3-3---------------------|
A –5-5-5-5-5-5-5-5---------------------7----7----------------------7-7-7-7-7-7-7-7--|
D --------------------------------------------7-------------------------------------|
G ----------------------------------------------------------------------------------|

Riff 2
E---------------------5-5-5-5-5-5-5-5--------3-3-3-3-3-3-3-3--------------------------|
A-5-5-5-5-5-5-5-5---------------------7---7--------------------7-7-7-7-7---7----------|
D ------------------------------------------7-----------------------------------7-----|
G ------------------------------------------------------------------------------------|

Riff 3
E---------------------5-5-5-5-5-5-5-5--------3-3-3-3-3-3-3-3--------------------------|
A-5-5-5-5-5-5-5-5---------------------7---7--------------------7-7-7-7-7---9-7 -9 -7--|
D ------------------------------------------7-----------------------------------7-----|
G ------------------------------------------------------------------------------------|

Riff 1 1x (00:00)
Riff 2 1x (00:16)
Riff 3 1x (00:33)
Riff3 1x  (00:49)
Riff 3 1x (01:07)
Riff 3 1x (01:20)
Riff 1 1x (01:36)
Riff 1 1x (01:54)
Riff 3 1x (02:10)
Riff 3 1x (02:25)
Riff 3 1x (02:40)
Riff 3 1x (02:56)
Riff 3 1x (03:12)
Riff 3 1x (03:29)
Riff 3 1x (03:44)
Riff 3 1x (04:00)

www.myspace.com/radiomacau
Suggest correction
Give kudos to tab author, rate the tab!
1 2 3 4 5
comments
print report bad tab
guest
You may want to rate the tab now too:
select rating
Wanna post a correction for this tab? Suggest correction