Oops, an error
Loading. Please wait.

O Anzol Bass Tab

813 views 1 this week
no commentswrite comment
1 2 3 4 5
3 more votes to show rating
add to favorites
launch autoscroll
font size
0
reset
guitar tuner
Autoscroll
slow
fast
+/-
esc
set tempo
stop
Help us to improve Ultimate-Guitar.com Take our survey!
×
Author
ARTIST:RADIO MACAU
MUSIC:O ANZOL

Riff 1
E-6-6-6-6---------8-8-8-8---------|
A---------8-8-8-8---------6-6-6-6-|
D---------------------------------|
G---------------------------------|

Riff 2
E-6-6-6-6---------8-8-8-8-----------6-|
A---------8-8-8-8---------6-6-5-5-3---|
D-------------------------------------|
G-------------------------------------|

Riff 3
E----------------8-8-8-8-8-8------------8-8-8-8-8-8------------------|
A-8-8-8-8-8-8-8-8------------8-8-8-8-8-8-------------8-8-8-8-8-8-8-8-|
D--------------------------------------------------------------------|
G--------------------------------------------------------------------|

8-8-8-8-8-8-8-8-------------8-8-8-8-8-8-8-8-|
----------------8-8-8-8-8-8-----------------|
--------------------------------------------|
--------------------------------------------|

RIFF 1 1X (00:0)
RIFF 2 1X (00:10)
RIFF 1 1X (00:14)
RIFF 2 1X (00:20)
RIFF 1 4X (00:25)
RIFF 1 1X (00:53)
RIFF 2 1X (01:12)
RIFF 1 3X (01:19)
RIFF 2 1X (01:38)
RIFF 3 1X (01:45)
RIFF 1 4X (01:58)
RIFF 3 1X (02:24)
RIFF 1 1X (02:37)
RIFF 2 1X (02:44)
RIFF 1 1X (02:50)
RIFF 2 1X (02:58)

www.myspace.com/radiomacau
Suggest correction
Give kudos to tab author, rate the tab!
1 2 3 4 5
comments
print report bad tab
guest
You may want to rate the tab now too:
select rating
Wanna post a correction for this tab? Suggest correction