Oops, an error
Loading. Please wait.

250 Miles Tab

version 3
version 3

Whole song

1,445 views 18 this week
5 commentsread comments
1 2 3 4 5
excellent!
x 3
add to favorites
launch autoscroll
font size
0
reset
how to read this tab
guitar tuner
Tab Pro tools
  • play this tab
  • loop segment
  • change instrument
  • show fretboard
  • metronome
×
Best way to learn
"250 Miles"
Autoscroll
slow
fast
+/-
esc
set tempo
stop
Contributor
Difficulty
advanced
                                  ~~~~~~~~~~~~~~~~~~~~~~~~~~~~~~~~~~~~~~~~
                                                  250 Miles                         
                                                 Radio Moscow
                                                 Brain Cycles  
                                  ~~~~~~~~~~~~~~~~~~~~~~~~~~~~~~~~~~~~~~~~
Tabbed by: Connor O.
Tuning: Standard



I'm hoping this isn't too confusing. The guitar playing is very fast, and occurs
on double digit frets most of the time, making it difficult to transcribe this 
song in a way that's easily readable for you. I put everything, even double digit frets,
into one number (for example, fret 10=0, fret 11=1, fret 12=2) to simplify the tab and make
it less crowded.

One last thing. I cannot say anything about the solo intros/outros (eg 3:00 - 3:13). 
I can't really tell what kind of effect/technique is being used to achieve those sounds besides
the fact that he uses the tremolo arm on a very long sustaining note.

Comment or message any ideas or corrections. Please rate my tab. If you've got
problems with the tab, I'd encourage you to contact me with those problems so I
can fix the tab or provide advice for playing. Don't just give me a poor rating
and not give me any feedback. The idea is for us all to work together to create
a perfect finished product. This tab just represents the best I can do. It's 
definitely up for peer review.



Key:
where # represents a fret number

#h# - hammer
#p# - pull
/ \ - slides, up and down respectively.
#b# - bend from normal note up to achieve bended note.
#r# - release bend from bended note to normal note.
pb# - on fret #, bend up a whole step then attack and release
 b  - picking at the top of a bend. This symbol is always preceeded by a bend.
 t  - trill. This symbol is always preceeded by a hammer-on. Indicates rapid 
      hammer-on and pull-off. Ex: 12h14t means 12h14p12h14p12h14p12h14p12...etc.
 x  - mute
 g  - ghost note, don't attack with picking hand, just fret. creates a nice
      soft sound.
 *  - the beat. if you kept a steady tapping rhythm with your foot, you'd see the 
      notes are displayed in the tab in the correct chronological order. 
 @  - symbol substitution, for when symbols (like double digit frets)
      are too large to fit in with the beat. 


Intro:


  0:00

e|---------------------------------|
B|---------------------------------|
G|---------------------------------|
D|---------------------------------|
A|-----7---7-5---------------------|
E|-0-----0---------0---5p0-5-3-----|
   *   *   *   *   *   *   *   *   

                                    X2                                       

e|---------------------------------|
B|---------------------------------|
G|---------------------------------|
D|-------------5---7---5-------5---|
A|-----7---5h7---7-------0-5h7-----|
E|-0-----0-------------------------|
   *   *   *   *   *   *   *   *  

  0:12

e|---------------------------------|
B|---------------------------------|
G|---------------------------------|
D|---------------------------------|
A|-----7---7-5---------------------|
E|-0-----0---------0---5p0-5-3-----|
   *   *   *   *   *   *   *   *   

  0:15    
     
e|-------------0-------------------0---------------------------------------------------------------|
B|---------------------0---3~/~5-------3~p~0-------------------------------------------------------|
G|---------------------------------------------0---2~b~4---b-------b-------pb2r2~p~0---------------|
D|-------------------------------------------------------------------------------------2-----------|
A|-------------------------------------------------------------------------------------------------|
E|-------------------------------------------------------------------------------------------------|
   *   ^   ^   *   ^   ^   *   ^   ^   *   ^   ^   *   ^   ^   *   ^   ^   *   ^   ^   *   ^   ^  
  
  0:19

e|---------------------------------|
B|---------------------------------|
G|---------------------------------|
D|---------------------------------|
A|-----7---7-5---------------------|
E|-0-----0---------0---5p0-5-3-----|
   *   *   *   *   *   *   *   *   

  0:22                                     
                         
                   @=5h7p5
e|-----------------------x-x-------|
B|-----------------------x-x-------|
G|-----------------------x-x-------|
D|-------------5---------x-x-------|
A|-----7---5h7-----------x-x-------|
E|-0-----0---------@---3-x-x-3-----|
   *   *   *   *   *   *   *   *  


Verse 1:
 

  To the outside world
  Don't open my door
  To the outside world

e|---------------------------------|
B|---------------------------------|
G|---------------------------------|
D|---------------------------------|
A|-----7---7-5---------------------|
E|-0-----0---------0---5p0-5-3-----|
   *   *   *   *   *   *   *   *   

                                    X4                                       

e|---------------------------------|
B|---------------------------------|
G|---------------------------------|
D|-------------5---7---5-------5---|
A|-----7---5h7---7-------0-5h7-----|
E|-0-----0-------------------------|
   *   *   *   *   *   *   *   *  

  0:50
  I'm movin to a place
  A place where no-one knows my name
                       @=7p5
e|---------------------------------|
B|---------------------------------|
G|---------------------------------| X2
D|-------------5-------------------|
A|---------7-----------@p0---------|
E|-5---5-5-----------------5-3-----| 
   *   *   *   *   *   *   *   *  



e|---------------------------------|
B|---------------------------------|
G|---------------------------------|
D|---------------------------------|
A|-----7---7-5---------------------|
E|-0-----0---------0---5p0-5-3-----|
   *   *   *   *   *   *   *   *   

                                                                       

e|---------------------------------|
B|---------------------------------|
G|---------------------------------|
D|-------------5---7---5-------5---|
A|-----7---5h7---7-------0-5h7-----|
E|-0-----0-------------------------|
   *   *   *   *   *   *   *   *  

  1:02
  I miss you little girl
                   @ = @ = @ = @ = 7h9
e|---------------------------------|
B|---------------------------------|
G|---------------------------------|
D|-------------7-----7---7---7-----|
A|---------9-------@---@---@---@p7-|
E|-7---7-7-------------------------|
   *   *   *   *   *   *   *   *  

  1:05
  I hope you miss me just the same
                   @ = @ = 5h7
e|---------------------------------|
B|---------------------------------|
G|---------------------------------|
D|-------------5-----5---5---------|
A|---------7-------@---@-----------|
E|-5---5-5-----------------5-3-----|
   *   *   *   *   *   *   *   * 

  1:09

e|---------------------------------|
B|---------------------------------|
G|---------------------------------|
D|---------------------------------|
A|-----7---7-5---------------------|
E|-0-----0---------0---5p0-5-3-----|
   *   *   *   *   *   *   *   *   
                                                                      
  1:11        

e|-------------0-------------------0---------------------------------------------------------------|
B|---------------------0---3~/~5-------3~p~0---------------3-------3-------------------------------|
G|---------------------------------------------0---2~/~4---4-------4-------4~/~2~p~0---------------|
D|-------------------------------------------------------------------------------------2-----------|
A|-------------------------------------------------------------------------------------------------|
E|-0-----------------------------------------------------------------------------------------------|
   *   ^   ^   *   ^   ^   *   ^   ^   *   ^   ^   *   ^   ^   *   ^   ^   *   ^   ^   *   ^   ^  

  1:15

e|---------------------------------|
B|---------------------------------|
G|---------------------------------|
D|---------------------------------|
A|-----7---7-5---------------------|
E|-0-----0---------0---5p0-5-3-----|
   *   *   *   *   *   *   *   *
                    
  1:18     
                           @=pb15                              @=pb15     
e|-------------5~~~b~~~7---@~~r5~~p2-----------2---------------------------------------------------|
B|-------------------------------------5-------5~~~b~~~7~~~7---@~~r5~~p2---------------------------|
G|-------------------------------------------------------------------------2-----------------------|
D|-------------------------------------------------------------------------------------------------|
A|-------------------------------------------------------------------------------------------------|
E|-0-----------------------------------------------------------------------------------------------|
   *   ^   ^   *   ^   ^   *   ^   ^   *   ^   ^   *   ^   ^   *   ^   ^   *   ^   ^   *   ^   ^  

Verse 2:


  1:21

(Identical to Verse 1 instrumentally)

Don't open my door
To your outside world
Don't open my door
The cold outside world
I'm movin to a place
250 miles away
I miss you little girl
I hope you miss me just the same
Just the same



Solo 1 (Guitar 1 plays through):


  2:10    
                           @=12b14
e|---------------------------2-----|
B|-------------------------2-----2-|
G|-------------------------@-------|
D|---------------------------------|
A|---------------------------------|
E|---------------------------------|
   *   *   *   *   *   *   *   *  



e|---------------------------------|
B|-5-------------------------------|
G|---------------------------------|
D|---------------------------------|
A|---------------------------------|
E|---------------------------------|
   *   *   *   *   *   *   *   *  


       @=15b17     @=15  @=12b14r12
e|---------------------------------|
B|-----@---5-------@-2-------------|
G|-----------------------@p0---2-4-|
D|---------------------------4-----|
A|---------------------------------|
E|---------------------------------|
   *   *   *   *   *   *   *   *  

         

e|---------------------------------|
B|---------------------------------|
G|-2-------------------------------|
D|---------4\--------------2h4t----|
A|---------------------------------|
E|---------------------------------|
   *   *   *   *   *   *   *   *  


                           @=2b4
e|---------------------------2-----|
B|-------------------------2-----2-|
G|-------------------------@-------|
D|---------------------------------|
A|---------------------------------|
E|---------------------------------|
   *   *   *   *   *   *   *   *  



e|---------------------------------|
B|-5-------------------------------|
G|---------------------------------|
D|---------------------------------|
A|---------------------------------|
E|---------------------------------|
   *   *   *   *   *   *   *   *  



e|-----------------2-----------------------------------------------2-------------------------------|
B|-------------2-------2---5~p~2-------------------------------2-------2---5~p~2-------2-----------|
G|-------------2b4---------------------------------------------2b4-----------------4---------------|
D|-------------------------------------------------------------------------------------------------|
A|-------------------------------------------------------------------------------------------------|
E|-------------------------------------------------------------------------------------------------|
   *   ^   ^   *   ^   ^   *   ^   ^   *   ^   ^   *   ^   ^   *   ^   ^   *   ^   ^   *   ^   ^      

                    
                                 @=4/6     
e|---------------------------------|
B|---------------------------------|
G|-2-----------------------------@-|
D|---------------------------------|
A|---------------------------------|
E|---------------------------------|
   *   *   *   *   *   *   *   * 


                                 @=4/6 (ghost)
e|---------------------------------|
B|-5-5---5-------------------------|
G|---------6---------------------@-|
D|---------------------------------|
A|---------------------------------|
E|---------------------------------|
   *   *   *   *   *   *   *   * 

  2:34
                                 @=4/6
e|-5-------------------------------|
B|---7-----------------------------|
G|-------------------------------@-|
D|---------------------------------|
A|---------------------------------|
E|---------------------------------|
   *   *   *   *   *   *   *   * 


         @   =   @   =   @=4/6
e|-5-------5-------5-------5-------|
B|---7-------7-------7-------7-----|
G|-------@-------@-------@---------|
D|---------------------------------|
A|---------------------------------|
E|---------------------------------|
   *   *   *   *   *   *   *   * 


   @=17b20  
e|---------------5\0---------5p2---|
B|-@-------7p5-------------------5p|
G|-------------6-------------------|
D|---------------------------------|
A|---------------------------------|
E|---------------------------------|
   *   *   *   *   *   *   *   * 

      
           @=pb4p2
e|---------------------------------|
B|p2-------------------------------|
G|-----4---------------------------|
D|---------@---2-4-2---------------|
A|-----------4---------------------|
E|---------------------------------|
   *   *   *   *   *   *   *   * 

  2:47
                       
e|-------------------------------------------------------------------------------------------------|
B|-------------------------------------------------------------------------------------------------|
G|---------------------------------------------------------------------2---------------------------|
D|-2h4t--------------------------------------------------------2~h~4---2---4~p~2---2---------------|
A|-------------------------------------------------------------------------------------2~\~0---0---|
E|-------------------------------------------------------------------------------------------------|
   *   ^   ^   *   ^   ^   *   ^   ^   *   ^   ^   *   ^   ^   *   ^   ^   *   ^   ^   *   ^   ^    


   @=2p0             
e|---------------------------------|
B|---------------------------------|
G|---------------------------------|
D|---------------------------------|
A|-@---------------5h7t------------|
E|---2---------------------5-3-----|
   *   *   *   *   *   *   *   * 


                           @ = @ =5b7 
e|---------2\0---------------2---2-|
B|---------2\0-------------@---@---|
G|---------------------------------|
D|---------------------------------|
A|---------------------------------|
E|-0-------------------------------|
   *   *   *   *   *   *   *   * 

  2:58
   @=5b7 
e|---------------------------------|
B|-@-------------------------------|
G|---------------------------------|
D|---------------------------------|
A|---------------------------------|
E|---------------------------------|
   *   *   *   *   *   *   *   * 

  2:58         

e|-------------0-------------------0---------------------------------------------------------------|
B|---------------------0---3~/~5-------3~p~0-------------------------------------------------------|
G|---------------------------------------------0---2~h~4---0---4-----------4~p~2~p~0---------------| Guitar 1 variation
D|-------------------------------------------------------------------------------------2-----------|
A|-------------------------------------------------------------------------------------------------|
E|-0-----------------------------------------------------------------------------------------------|
   *   ^   ^   *   ^   ^   *   ^   ^   *   ^   ^   *   ^   ^   *   ^   ^   *   ^   ^   *   ^   ^  


3:00 (Begin transition into solo, I have no idea what's going on here to start that sound)


Solo 2:


  3:14
    
e|---------2---------------------------------------------------------------------------------------|
B|-----2-------2-------5b7~~~~r5b7~~---pb5---2-----5b7-----5b7-----5b7-----pb5p2-------2-------2---|
G|-2b4-----------------------------------------------------------------------------4-------4-------|
D|-------------------------------------------------------------------------------------------------|
A|-------------------------------------------------------------------------------------------------|
E|-------------------------------------------------------------------------------------------------|
   *   ^   ^   *   ^   ^   *   ^   ^   *   ^   ^   *   ^   ^   *   ^   ^   *   ^   ^   *   ^   ^    


                    
e|-------------------------------------------------------------------------------------------------|
B|-------------------------------------------------------------2-----------------------------------|
G|-pb4p2-------2-----------------------------------4~p~2-------2-------4---2-----------2-------2---|
D|---------4-----------------------------------------------4---------------------------------------|
A|-------------------------------------------------------------------------------------------------|
E|-------------------------------------------------------------------------------------------------|
   *   ^   ^   *   ^   ^   *   ^   ^   *   ^   ^   *   ^   ^   *   ^   ^   *   ^   ^   *   ^   ^ 

  3:20
                                                   
e|---------2-----------2-----------2-----------2---5b7-b---b---b---b---b---pb5p2-------2-------2---|
B|-----2-----------2-----------2-----------2---------------------------------------5b7-----5b7-----|
G|-4b6---------4b6---------4b6---------4b6---------------------------------------------------------|
D|-------------------------------------------------------------------------------------------------|
A|-------------------------------------------------------------------------------------------------|
E|-------------------------------------------------------------------------------------------------|
   *   ^   ^   *   ^   ^   *   ^   ^   *   ^   ^   *   ^   ^   *   ^   ^   *   ^   ^   *   ^   ^ 

  

e|-------------------------------------------------------------------------------------------------|
B|-5b7---------------------------------------------7b9---------------------5-------2-------5-------|
G|-------------------------------------------------------------------------------------------------|
D|-------------------------------------------------------------------------------------------------|
A|-------------------------------------------------------------------------------------------------|
E|-------------------------------------------------------------------------------------------------|
   *   ^   ^   *   ^   ^   *   ^   ^   *   ^   ^   *   ^   ^   *   ^   ^   *   ^   ^   *   ^   ^    

  3:26
                            
e|-------------------------------------------------------------------------------------------------|
B|-pb5p2-------------------------------------------------------------------------------------------|
G|---------4---2-----------------------------------------------------------------------------------|
D|-------------------------------------------------------------------------------------------------|
A|-------------------------------------------------------------------------------------------------|
E|-------------------------------------------------------------------------------------------------|
   *   ^   ^   *   ^   ^   *   ^   ^   *   ^   ^   *   ^   ^   *   ^   ^   *   ^   ^   *   ^   ^    

  

e|-------------------------------------------------------------------------------------------------|
B|-------------------------------------------------------------------------------------------------|
G|-------------------------------------------------------------------------------------------------|
D|-------------------------5-----------------------------------------------------------------------|
A|---------5---7---7---7-----------7---------------7~p~5-------------------------------------------|
E|-5~/~7---------------------------------------------------7---5~\~3---0---3-------0---------------|
   *   ^   ^   *   ^   ^   *   ^   ^   *   ^   ^   *   ^   ^   *   ^   ^   *   ^   ^   *   ^   ^        
 
  3:33

e|-------------------------------------------------------------------------------------------------|
B|-------------------------------------------------------------------------------------------------|
G|-------------------------------------------------------------------------------------------------|
D|-------------------------7-------5---------------------------------------------------------------|
A|---------5---7---7---7---------------------------7~p~5-------5-------7---7-----------------------|
E|-5~/~7---------------------------------------------------7---------------------------------------|
   *   ^   ^   *   ^   ^   *   ^   ^   *   ^   ^   *   ^   ^   *   ^   ^   *   ^   ^   *   ^   ^ 



e|-------------------------------------------------------------------------------------------------|
B|-------------------------------------------------------------------------------------------------|
G|-------------------------7~p~4-------------------------------------------------------------------|
D|---------5---7~p~5---5-----------7---5h7p5-------------------------------------------------------|
A|-5~/~7---------------------------------------7---5h7p5-------------------------------------------|
E|---------------------------------------------------------5/7-7\5-----0---3-------0-----------5/7-|
   *   ^   ^   *   ^   ^   *   ^   ^   *   ^   ^   *   ^   ^   *   ^   ^   *   ^   ^   *   ^   ^ 

  2:28

e|-------------------------------------------------------------------------------------------------|
B|---------------------------------------------0---0b2r0p8-----8-----------------------------------|
G|---------------------------------7---9~p~7---------------9-----------9---------------------------|
D|---------------------5---7~/~9-------------------------------------------------------------------|
A|-5---5---5---7~p~5-------------------------------------------------------------------------------|
E|-------------------------------------------------------------------------------------------------|
   *   ^   ^   *   ^   ^   *   ^   ^   *   ^   ^   *   ^   ^   *   ^   ^   *   ^   ^   *   ^   ^ 

  
    
e|---------2-----------2-----------------------2-----------2-----------2-----------2-----------2---|
B|-----2-----------2---------------2-------2-----------2-----------2-----------2-------------------|
G|-2b4---------2b4-------------2b4-----2b4---------2b4---------2b4---------2b4---------2b4---------|
D|-------------------------------------------------------------------------------------------------|
A|-------------------------------------------------------------------------------------------------|
E|-------------------------------------------------------------------------------------------------|
   *   ^   ^   *   ^   ^   *   ^   ^   *   ^   ^   *   ^   ^   *   ^   ^   *   ^   ^   *   ^   ^    

  3:45
                           7   5   2
e|-------------------------------------5b7-----5---------------5~p~2-------2-------2-----------2---|
B|-5b7-----5b7-------------pb5~~~~p2-----------------------------------5-----------5b7-------------|
G|-------------------------------------------------------------------------------------------------|
D|-------------------------------------------------------------------------------------------------|
A|-------------------------------------------------------------------------------------------------|
E|-------------------------------------------------------------------------------------------------|
   *   ^   ^   *   ^   ^   *   ^   ^   *   ^   ^   *   ^   ^   *   ^   ^   *   ^   ^   *   ^   ^   

  
                                                           
e|-5~p~2---2---2-------2---5~p~2---2---2---2---2---------------------------------------------------|
B|---------5b7-----5b7-------------5b7-----5b7-----5~p~2-------2-------2---------------------------|
G|---------------------------------------------------------4-------4-------pb4p2-------2-------4---|
D|---------------------------------------------------------------------------------4---------------|
A|-------------------------------------------------------------------------------------------------|
E|-------------------------------------------------------------------------------------------------|
   *   ^   ^   *   ^   ^   *   ^   ^   *   ^   ^   *   ^   ^   *   ^   ^   *   ^   ^   *   ^   ^        

  3:51

e|-------------------------------------------------------------------------------------------------|
B|-------------------------------------------------------------------------------------4~p~2-------|
G|-2-----------------------------------------------------------------------------------4~p~2-------|
D|---------------------------------------------------------------------------------------------4---|
A|-------------------------------------------------------------------------------------------------|
E|-------------------------------------------------------------------------------------------------|
   *   ^   ^   *   ^   ^   *   ^   ^   *   ^   ^   *   ^   ^   *   ^   ^   *   ^   ^   *   ^   ^     



e|-------------------------------------------------------------------------------------5-----------|
B|-------------------------------------------------5-------7-------7-------7-------------------7---|
G|-2---------------------------------------4~/~6---------------------------------------------------|
D|---------4---------------------------------------------------------------------------------------|
A|-------------------------------------------------------------------------------------------------|
E|-------------------------------------------------------------------------------------------------|
   *   ^   ^   *   ^   ^   *   ^   ^   *   ^   ^   *   ^   ^   *   ^   ^   *   ^   ^   *   ^   ^     

  3:57

e|-9~p~5-------9~p~5-------9~p~5-------9~p~5-------9~p~5-------9~p~5-------9~p~5-------9~p~5-------|
B|---------7-----------7-----------7-----------7-----------7-----------7-----------7-----------7---|
G|-------------------------------------------------------------------------------------------------|
D|-------------------------------------------------------------------------------------------------|
A|-------------------------------------------------------------------------------------------------|
E|-------------------------------------------------------------------------------------------------|
   *   ^   ^   *   ^   ^   *   ^   ^   *   ^   ^   *   ^   ^   *   ^   ^   *   ^   ^   *   ^   ^        

                                                     
           @=19b21                                  
e|---------@---------------9-------8-------7-------7b9r7p5-----5-----------------------------------|
B|---------------------------------------------------------7-----------7-----------7---7-------7---|
G|-------------------------------------------------------------------------------------------------|
D|-------------------------------------------------------------------------------------------------|
A|-------------------------------------------------------------------------------------------------|
E|-------------------------------------------------------------------------------------------------|
   *   ^   ^   *   ^   ^   *   ^   ^   *   ^   ^   *   ^   ^   *   ^   ^   *   ^   ^   *   ^   ^     

  4:03

e|-------------------------------------5---6---7---------------5---6---7---7b9-----7b9r7p5-----5---|
B|-5---6---7---5---6---7---5---6---7---------------5---6---7-------------------------------7-------|
G|-------------------------------------------------------------------------------------------------|
D|-------------------------------------------------------------------------------------------------|
A|-------------------------------------------------------------------------------------------------|
E|-------------------------------------------------------------------------------------------------|
   *   ^   ^   *   ^   ^   *   ^   ^   *   ^   ^   *   ^   ^   *   ^   ^   *   ^   ^   *   ^   ^    

                                    
                           @'s = 17b20
e|-------------------------------------------------------------------------------------2-----------|
B|-7-----------7---5~h~7---@-------@-------@-------@---------------------------------------5~p~2---|
G|-------------------------------------------------------------------------------------------------|
D|-------------------------------------------------------------------------------------------------|
A|-------------------------------------------------------------------------------------------------|
E|-------------------------------------------------------------------------------------------------|
   *   ^   ^   *   ^   ^   *   ^   ^   *   ^   ^   *   ^   ^   *   ^   ^   *   ^   ^   *   ^   ^     

  4:10
        
e|-5-----------5-----------5-----------5-----------5-----------5-----------5-----------------------|
B|-----7p5---------7p5---------7p5---------7p5---------7p5---------7p5---------7p5-----------------|
G|---------6-----------6-----------6-----------6-----------6-----------6-----------6---6\----------|
D|-------------------------------------------------------------------------------------------------|
A|-------------------------------------------------------------------------------------------------|
E|-------------------------------------------------------------------------------------------------|
   *   ^   ^   *   ^   ^   *   ^   ^   *   ^   ^   *   ^   ^   *   ^   ^   *   ^   ^   *   ^   ^   

  
                                       
e|-------------------------------------------------------------------------------------------------|
B|-------------------------------------------------------------------------------------------------|
G|-2-----------------------------------------------------------------------------------4p2---------|
D|-----------------------------------------------------------------------------------------4-------|
A|-------------------------------------------------------------------------------------------------|
E|-------------------------------------------------------------------------------------------------|
   *   ^   ^   *   ^   ^   *   ^   ^   *   ^   ^   *   ^   ^   *   ^   ^   *   ^   ^   *   ^   ^ 

  4:16

e|-------------------------------------------------------------------------------------------------|
B|-------------------------------------------------------------------------------------------------|
G|-------------------------------------------------------------------------------------------------|
D|-------------------------------------------------------------------------------------------------|
A|-------------------------------------------------------------------------------------------------|
E|-------------------------------------------------------------------------------------------------|
   *   ^   ^   *   ^   ^   *   ^   ^   *   ^   ^   *   ^   ^   *   ^   ^   *   ^   ^   *   ^   ^ 

  

e|-------------------------------------------------------------------------------------------------|
B|-------------------------------------------------------------------------------------------------|
G|-------------------------------------------------------------------------------------------------|
D|-------------------------5-----------------------------------------------------------------------|
A|---------5-------7-------------------------------------------------------------------------------|
E|-5/7---------------------------------------------------------------------------------------------|
   *   ^   ^   *   ^   ^   *   ^   ^   *   ^   ^   *   ^   ^   *   ^   ^   *   ^   ^   *   ^   ^ 
comments
We did not receive enough feedback on this tab! Please rate:
print report bad tab
1 2 3 4 5
5 comments total. Showing first comments.
0 reply
yogosan wrote on June 25 2014, 09:43 pm

Parker Griggs shreds!

0 reply
coman91 wrote on June 25 2014, 10:01 pm

so much and so fast that I couldn't help but make this tablature ridiculously long and hard to understand.

I'm just glad you could read it and found it helpful! Thanks for the feedback!

0 reply
hamnola wrote on July 17 2015, 04:16 pm

What is meant by the "d o-p m d" at 0:22?

I want to post or [tab]
guest
You may want to rate the tab now too:
select rating
Please do not post tabs as comments. Select "correction" instead!