Oops, an error
Loading. Please wait.

Rancho Tehama Airport tab

1,282 views 36 this week
no commentswrite comment
1 2 3 4 5
x 4
add to favorites
×
Save as Personal and add changes to this tab that will be seen only by you. Learn more ›
×
You can save this tab as Personal to edit and correct it or add notes. All changes will be seen only by you. Learn more »
launch autoscroll
font size
0
reset
how to read this tab
guitar tuner
edit
Autoscroll
slow
fast
+/-
esc
set tempo
stop
Author
-----------------------------------------------------------------
              Radio Moscow - Rancho Tehama Airport
-----------------------------------------------------------------

Tabbed By : Aeonoptic
e-mail: aeonoptic@gmail.com

Tuning: EADGBe

  Intro
E|---------------------|--------------------|
B|---------------------|--------------------|
G|---------------------|-----------------2--|
D|----7p0---5p0---4p0-2|----4p0-2~-2--------|
A|0-0-----0-----0------|0-0----------3p0---0| x2
E|---------------------|--------------------|

E|---------------------|-------------------|------|----8-----------------|----------------------|
B|---------------------|-------------------|------|----8----5---5---5---5|--5---5---5-----------|
G|---------------------|---------------2-5~|7~----|----6----5---5---5---5|--5---5---5--7br9p5---|
D|----7p0---5p0---4p0-2|----4p0-2~-------5~|7~--5~|----7--7---7---7---7--|7---7---7-----------7~|
A|0-0-----0-----0------|0-0--------3p0---3~|5~--5~|0-0-------------------|----------------------|
E|---------------------|-------------------|----3~|----------------------|----------------------|

E|---------------------|--------------------|
B|---------------------|--------------------|
G|---------------------|-----------------2--|
D|----7p0---5p0---4p0-2|----4p0-2~-2--------|
A|0-0-----0-----0------|0-0----------3p0---0| x3
E|---------------------|--------------------|

  Verse
E|-----------------------|-------------------|------------------------------------------|
B|--5---5---5---5---5---5|---5---5-----------|------------------------------5b----------|
G|--5---5---5---5---5---5|---5---5-5-7br9p5--|------------------------------5b----------|
D|7---7---7---7---7---7--|-7---7------------7|----7p5-7-----7p5-7-----7p5-5----7-5h7p5--|
A|-----------------------|-------------------|-----------------------------------------7|
E|-----------------------|-------------------|5-5-------5-5-------5-5-------------------|

E|---------------------------------------|-------------------------------------------|
B|---------------------------------------|------------------------------5b-----------|
G|---------------------------------------|------------------------------5b-----------|
D|----7p5-7-----7p5-7-7p5p4-5p4---------7|----7p5-7-----7p5-7-----7p5-7----7-5h7p5---|
A|------------------------------5-5h7----|-----------------------------------------7~|
E|5-5-------5-5-----------------------5--|5-5-------5-5-------5-5--------------------|
5
E|--------------------------------------|------------------------------------|
B|--------------------------------------|------------------------------------|
G|--------------------------------------|----7p0---5p0---4p0-2-----2p0-4p0-5~|
D|----7p5-7-----7p5-7-7p5---------------|0-0-----0-----0-------0-0-----------|
A|------------------------7-5\3-3br4---3|------------------------------------|
E|5-5-------5-5----------------------5--|------------------------------------|

E|----------------------------|-------------------------------------------|
B|----------------------------|------------------------------5b-----------|
G|----7p0---5p0---4p0-5-5-----|------------------------------5b-----------|
D|0-0-----0-----0-----5-5--5-5|----7p5-7-----7p5-7-----7p5-7----7-5h7p5---|
A|--------------------3-3--5-5|-----------------------------------------7~|
E|-------------------------3-3|5-5-------5-5-------5-5--------------------|

E|---------------------------------------|
B|---------------------------------------|
G|---------------------------------------|
D|----7p5-7-----7p5-7--7p5---------------|
A|-------------------------7-5\3-5p3---3~|
E|5-5-------5-5----------------------5---|

E|---------------------|--------------------|
B|---------------------|--------------------|
G|---------------------|-----------------2--|
D|----7p0---5p0---4p0-2|----4p0-2~-2--------|
A|0-0-----0-----0------|0-0----------3p0---0| x2
E|---------------------|--------------------|

E|---------------------|-------------------|------|----8-----------------|----------------------|-------|
B|---------------------|-------------------|------|----8----5---5---5---5|--5---5---5-----------|-------|
G|---------------------|---------------2-5~|7~----|----6----5---5---5---5|--5---5---5--7br9p5---|5--7---|
D|----7p0---5p0---4p0-2|----4p0-2~-------5~|7~--5~|----7--7---7---7---7--|7---7---7-----------7~|5--7--5|
A|0-0-----0-----0------|0-0--------3p0---3~|5~--5~|0-0-------------------|----------------------|3--5--5|
E|---------------------|-------------------|----3~|----------------------|----------------------|------3|

E|-----------------------|
B|-----------------------|
G|----x-x-x-x-x-x-x-x-x-x|
D|----x-x-x-x-x-x-x-x-x-x|
A|----x-x-x-x-x-x-x-x-x-x|
E|17\-x-x-x-x-x-x-x-x-x-x|

Middle 8
E|---------|----------------|
B|---------|----------------|
G|---------|----------------|
D|---------|-----5/7\5~-----|
A|------3-5|-------------3--| x3
E|3-5------|3-5------------5|

E|--------|---------------|
B|--------|---------------|
G|--------|---------------|
D|--------|---------------|
A|-----3-5|-----6-5~--3---|
E|3-5-----|3-5----------5~|


  Solo
E|------5-------5-----|--------------------------------|-----10b12~--10b12-10b12--10b12-8----8---|
B|----5-------5---8b10|8b10-8pb10-8pb10-8pb10-8pbr10---|8-10------------------------------10---10|
G|7b9-----7b9---------|------------------------------5~|-----------------------------------------|
D|--------------------|--------------------------------|-----------------------------------------|
A|--------------------|--------------------------------|-----------------------------------------|
E|--------------------|--------------------------------|-----------------------------------------|

  slow whammy bar
  v
E|12tr15---------|15br17-12--------------|---------15----21b23--21b23-21b23-21b23|
B|---------------|----------15b18-13-----|---15-17----17-------------------------|
G|---------------|-------------------14~~|14-------------------------------------|
D|---------------|-----------------------|---------------------------------------|
A|---------------|-----------------------|---------------------------------------|
E|---------------|-----------------------|---------------------------------------|

E|21b23-21b23-21b23-21b23-21b23-21b23|20br22-17----17---------------|------------|
B|-----------------------------------|----------20----20b22-20b22~~~|20b22~~~~~~~|
G|-----------------------------------|------------------------------|------------|
D|-----------------------------------|------------------------------|------------|
A|-----------------------------------|------------------------------|------------|
E|-----------------------------------|------------------------------|------------|

E|-----------------------|
B|-----------------------|
G|----x-x-x-x-x-x-x-x-x-x|
D|----x-x-x-x-x-x-x-x-x-x|
A|----x-x-x-x-x-x-x-x-x-x|
E|17\-x-x-x-x-x-x-x-x-x-x|

E|----------------------|-------------------------|--------------------------------|
B|----------------------|5b---------------5----5--|----8---8---8---8---8---8--8---8|
G|7b9~~~--7br9-5-7-5----|5b---7p5---5-----5----5--|7/9---9---9---9---9---9--9---9--|
D|-------------------7~~|---7-----7---7~----7----7|--------------------------------|
A|----------------------|-------------------------|--------------------------------|
E|----------------------|-------------------------|--------------------------------|

E|-------------------8h10p8|10b12--10b12-10b12-10b12-12b15~|12-11-10----10br12-8----8----|
B|8-10br12p8-10~--10-------|-------------------------------|---------13----------10---10~|
G|-------------------------|-------------------------------|-----------------------------|
D|-------------------------|-------------------------------|-----------------------------| 
A|-------------------------|-------------------------------|-----------------------------|
E|-------------------------|-------------------------------|-----------------------------|

E|--------------------------------------------------------------|
B|13-13h15p13----13-17p13h15p13----17p13h15p13----17p13h15p13---|
G|------------14----------------14-------------14-------------14|
D|--------------------------------------------------------------|
A|--------------------------------------------------------------|
E|--------------------------------------------------------------|

E|-----------------------------------------------------------|15b18--15br18-----------|
B|17p13h15p13----17p13h15p13----17p13h15p13----17p13h15p13---|------------------------|
G|------------14-------------14-------------14-------------14|--------------19p17-----|
D|-----------------------------------------------------------|--------------------19~~|
A|-----------------------------------------------------------|------------------------|
E|-----------------------------------------------------------|------------------------|

                                        rapid strumming
                                        v
E|-------------------------------------|----------------15b17~~|15pbr17-12----12----12-12----12---|
B|----5-5h8p5---5h8p5---5h8p5---5h8p5--|8--10--13-15p13--------|-----------15----15----15b17-15b17|
G|7b9---------7-------7-------7-------7|9--11--14--------------|----------------------------------|
D|-------------------------------------|-----------------------|----------------------------------|
A|-------------------------------------|-----------------------|----------------------------------|
E|-------------------------------------|-----------------------|----------------------------------|

E|----------17--20b22--20b22|20b22-20b22-20b22--17----17---------|
B|----17-20-----------------|----------------------20----20brb22\|
G|/19-----------------------|------------------------------------|
D|--------------------------|------------------------------------|
A|--------------------------|------------------------------------|
E|--------------------------|------------------------------------|

  Verse
E|----------------------|------------------------|----------------------|-------------------|
B|----------------------|------------------------|----------------------|-------------------|
G|----------------------|------------5b----------|----------------------|------------------2|
D|-----7p5-7-------7p5-7|-----7p5-7-----7-5h7p5--|-----7p5-7-------7p5-7|7p0---5p0---4p0----|
A|----------------------|-----------------------7|----------------------|----0-----0-----0--|
E|5-5---------5-5-------|5-5---------------------|5-5---------5-5-------|-------------------|

E|----------------------|------------------------|----------------------|--------------------|
B|----------------------|------------------------|----------------------|--------------------|
G|----------------------|------------5b----------|----------------------|--------------------|
D|-----7p5-7-------7p5-7|-----7p5-7-----7-5h7p5--|-----7p5-7-------7p5-7|7p0---5p0---4p0-----|
A|----------------------|-----------------------7|----------------------|----0-----0-----0-3~|
E|5-5---------5-5-------|5-5---------------------|5-5---------5-5-------|--------------------|

E|---------------------|------------------|-------------------|----------|
B|---------------------|------------------|-------------------|----------|
G|----7p0---5p0---4p0-2|----5p4p0-4p2p0-5~|----7p0---5p0---4p0|7--7------|
D|0-0-----0-----0------|0-0---------------|0-0-----0-----0----|7--7--5--5|
A|---------------------|------------------|-------------------|5--5--5--5|
E|---------------------|------------------|-------------------|------3--3|

E|----------------------|------------------------|----------------------|--------------------|
B|----------------------|------------------------|----------------------|--------------------|
G|----------------------|------------5b----------|----------------------|--------------------|
D|-----7p5-7-------7p5-7|-----7p5-7-----7-5h7p5--|-----7p5-7-------7p5-7|7p5\4---------------|
A|----------------------|-----------------------7|----------------------|------7p5\3-5p3---3~|
E|5-5---------5-5-------|5-5---------------------|5-5---------5-5-------|----------------5---|

  Intro (reprise)
E|---------------------|--------------------|
B|---------------------|--------------------|
G|---------------------|-----------------2--|
D|----7p0---5p0---4p0-2|----4p0-2~-2--------| 
A|0-0-----0-----0------|0-0----------3p0---0| x2
E|---------------------|--------------------|

E|---------------------|-------------------|------|----8-----------------|----------------------|
B|---------------------|-------------------|------|----8----5---5---5---5|--5---5---5-----------|
G|---------------------|---------------2-5~|7~----|----6----5---5---5---5|--5---5---5--7br9p5---|
D|----7p0---5p0---4p0-2|----4p0-2~-------5~|7~--5~|----7--7---7---7---7--|7---7---7-----------7~|
A|0-0-----0-----0------|0-0--------3p0---3~|5~--5~|0-0-------------------|----------------------|
E|---------------------|-------------------|----3~|----------------------|----------------------|

E|------|--------|-------------------------8----|-----------------------|---------|-------------------|
B|------|--------|--------------------8h10---10~|-----------------------|---------|-------------------|
G|----5~|----7---|--------------5h7/9-----------|----x-x-x-x-x-x-x-x-x-x|---------|-------------------|
D|--5---|--7----5|----------5h7-----------------|----x-x-x-x-x-x-x-x-x-x|---------|-----5/7\5~--------|
A|3-----|5------5|----3h5/7---------------------|----x-x-x-x-x-x-x-x-x-x|------3-5|-------------3-----|
E|------|-------3|3h5---------------------------|17\-x-x-x-x-x-x-x-x-x-x|3-5------|3-5------------5~/\|

| /  slide up
| \  slide down
| h  hammer-on
| p  pull-off
| ~  vibrato
| +  harmonic
| x  Mute note
Suggest correction
Creating personal tab
Creating personal tab
You can edit any tab online and save it as your Personal.

You can edit, replace or remove any tab part or add personal notes – all changes will be seen only by you.

Personal tabs can be accessed anytime from any device, even offline.
Learn more »
comments
print report bad tab
guest
You may want to rate the tab now too:
select rating
Wanna post a correction for this tab? Suggest correction