Oops, an error
Loading. Please wait.

Angels Tab

206 views 1 this week
2 commentsread comments
1 2 3 4 5
2 more votes to show rating
add to favorites
launch autoscroll
font size
0
reset
how to read this tab
guitar tuner
Autoscroll
slow
fast
+/-
esc
set tempo
stop
Help us to improve Ultimate-Guitar.com Take our survey!
×
-------------------------------------------------------------------------------
                             Angels - Radio Racer (Arliss)
-------------------------------------------------------------------------------
Tuning:
Dropped D tuning, all guitars tuned a half step down

By the way, Nick sent me this so its 100% correct

Intro:          
e|-----------------------------------------------------------------|
B|----------3-------------3---------------3-------------3----------|
G|------0-----0---0---0-----0---0-----0-----0---0---0-----0---0----|
D|--2-2---2-----2---2---2-----2---0-0---0-----0---0---0-----0------|
A|-----------------------------------------------------------------|
D|-----------------------------------------------------------------|

e|-----------------------------------------2----------------|
B|-----------------------------------------3----------------|
G|----------3-------------3------------0--------------------|  (x2)
D|------0-----0---0---0-----0---0--0-0---0------------------|
A|--3-3---3-----3---3---3-----3-----------------------------|
D|----------------------------------------------------------|

Rhythm: 
e|---------------------------------------------------|
B|--3-----3-----3-----3------------------------------|
G|--0-----2-----0-----2------------------------------|  ( x2)
D|--2-----0-----------0------------------------------|
A|--2-----0-----3-----0------------------------------|
D|--2-----0-----------0------------------------------|

Bridge
e|---------------------------------------------------|
B|--3-----3-----3-----3------------------------------|
G|--0-----0-----0-----2------------------------------|
D|--2-----------0-----0------------------------------|  (x3)
A|--2-----3-----5-----0------------------------------|
D|--2-----------5-----0------------------------------|

End on:
e|---------------|
B|--3------------|
G|--0------------|
D|---------------|
A|--3------------|
D|---------------|

| /  slide up
| \  slide down
| h  hammer-on
| p  pull-off
| ~  vibrato
| +  harmonic
| x  Mute note
===============================================================================
Suggest correction
Give kudos to tab author, rate the tab!
1 2 3 4 5
comments
print report bad tab
2 comments total.
0 reply
DarkDallasNight 182 Jan 07, 2008 01:08 PM

By the way Nick sent me this so its 100% correct...and by Arliss

0 reply
TheOneManBand12 51 Mar 23, 2008 01:12 PM

great tab

guest
You may want to rate the tab now too:
select rating
Wanna post a correction for this tab? Suggest correction